» » »

Alice Cooper, Caught In A Dream Bass tabs (ver.2)

Artists:  A B C D E F G H I J K L M N O P Q R S T U V W X Y Z # 

Caught In A Dream Bass tabs (ver.2)

Alice Cooper Tabs
 Rating:
4/5 (4 votes)
Caught In A Dream lessons Tabs too difficult? Try these video lessons and learn fast
1
                Caught In A Dream - Alice Cooper
Love It To Death album



Intro ( 7 seconds into song )

|--14-14-14\--|
|-------------|
|-------------|
|-------------|

Verse
|------------------------------------------------------|
|--7>7--------7>-7-----7------------4-5-5-5------------|
|------7-9-10------7-9----9>-9-5-7-8---------5>-5-7-9--|
|------------------------------------------------------| x6

Chorus
|-----------------------------------------------|
|--8>>------------------------------------------|
|-------5-6-7-8>>----5-8-5-7-3>>-------6>>------|
|---------------------------------3-4-5---------|

|----------------------------------------------------|
|--8>>-----------------------10>>-12-9-5-------------|
|------5-6-7-8>>-----5-7-5-8--------------5-7x16-----|
|----------------------------------------------------|

Guitar Solo
|--------------------------|
|--------------------------|
|--7>-7----------7>-7------|
|-------7-9-10-11----------| x8

Fill
|-------------|
|-------------|
|--7-9-10-11--|
|-------------|

Verse x4

Fill 2
|----------------------------------------------------------|
|--7>-7-----7------------7---------------4-5-5-5-----------|
|-------7-9---10-10--7-9----9>-9---5-7-8---------5>>-------|
|----------------------------------------------------------| x2

Chorus

Guitar Solo x8

Fill

Verse until fade out
            
Submit corrections

comments powered by Disqus
↑ Back to top | Alice Cooper Bass for Caught In A Dream. Lyrics for acoustic guitar and electric guitar. 1 Tablatures and chords are parodies/interpretations of the original songs. You may use it for private study, scholarship, research or language learning purposes only