>
 >
Caught In A Dream

Caught In A Dream Bass Tabs

Alice Cooper - Caught In A Dream chords, tabs, tablatures, lyrics

Guitar lessons | Add/correct | Request | Top 50 tabs Artists:  A B C D E F G H I J K L M N O P Q R S T U V W X Y Z 0-9

Caught In A Dream Bass Tabs – Alice Cooper

CD, Sheet music, Poster

Do you like Caught In A Dream? Share with your friends now
Bass TabsBass Tabs v2Tabs
Alice cooper
Caught in a dream 
Love it to death album 1971
Bass tab 
Dennis Dunaway

Same time as drums 
       6            7             8           9              10
G-14-14-14--14|------------|-------------|-------------|------------|
D-------------|7-7----5-6-7|---7---5-7-4-|---4------4-4|-5-5-----4-5|
A-------------|-----7------|-----7-------|------4-7----|-----5-5----|
E-------------|------------|-------------|-------------|------------|

      11          12              13          14
G-------------|-------------|-------------|------------|
D-7-7----5-6-7|---7---5-7-4-|---4------4-4|-5-5-----4-5|
A------7------|-----7-------|------4-7----|-----5-5----|
E-------------|-------------|-------------|------------|

      15            16            17           18
G-------------|-------------|-------------|------------|
D-7-7----5-6-7|---7---5-7-4-|---4------4-4|-5-5-----4-5|
A------7------|-----7-------|------4-7----|-----5-5----|
E-------------|-------------|-------------|------------|

       19            20           21           22
G-------------|-------------|-------------|------------|
D-7-7----5-6-7|---7---5-7-4-|---4------4-4|-5-5-----4-5|
A------7------|-----7-------|------4-7----|-----5-5----|
E-------------|-------------|-------------|------------|

        23           24           25            26
G-------------|-------------|-------------|-------------|
D-7-7----5-6-7|---7---5-7-4-|---4------4-4|-5-5---------|
A------7------|-----7-------|------4-7----|-----5--5----|
E-------------|-------------|-------------|-------------|

        27          28            29             30
G-------------|-------------|-------------|-------------|
D-------0-1-2-|-3-3-3---1-3-|-------------|1-1-1-1-0----|
A-1-1-1-------|-------3-----|-3-3-----1-2-|----------3--|
E-------------|-------------|-----3-3-----|-------------|

         31         32          33              34
G-------------|-------------|-------------|---------------|
D-------0-1-2-|-3-3-3---1-3-|-------------|---------------|
A-1-1-1-------|-------3-----|-3-3-----1-2-|7-7-7-7-7-7-7-7|
E-------------|-------------|-----3-3-----|---------------|

        35            36            37          38        
G--------------|-------------|-------------|---------------|
D--------------|-------------|-------------|---------------|
A-7-7-7-7-7-7-7|7-7-----5-6--|7-7-----5-6--|7-7-----5-6----|
E--------------|----7-7------|----7-7------|----7-7--------|

         39       40             41            42             43
G------------|-------------|-------------|--------------|-----------|
D------------|-------------|-------------|--------------|-----------|
A-7-7-----5-6|7-7-----5-6--|7-7-----5-6--|7-7-----5-6---|7-7-----5-6|
E-----7-7----|----7-7------|----7-7------|----7-7-------|----7-7----|
    
    44             45               46         47
G-------------|-------------|-------------|------------|
D-7-7----5-6-7|---7---5-7-4-|---4------4-4|-5-5-----4-5|
A------7------|-----7-------|------4-7----|-----5-5----|
E-------------|-------------|-------------|------------|

       48           49            50            51
G-------------|-------------|-------------|------------|
D-7-7----5-6-7|---7---5-7-4-|---4------4-4|-5-5-----4-5|
A------7------|-----7-------|------4-7----|-----5-5----|
E-------------|-------------|-------------|------------|

       52            53            54           55
G-------------|-------------|-------------|------------|
D-7-7----5-6-7|---7---5-7-4-|---4------4-4|5-5----4-5-7|
A------7------|-----7-------|------4-7----|-----5------|
E-------------|-------------|-------------|------------|

        56          57             58          59
G-------------|-----------|-------------|------------|
D-7-----7-7-5-|-5-----5-4-|-4------4-4-5|-5-----5-7--|
A---7-7-------|---5-5-----|----4-4------|---5-5------|
E-------------|-----------|-------------|------------|

      60           61            62         63           64
G------------|-----------|-------------|----------|-----------|
D-7-----7-5--|-5-----5-4-|-4-----4-5---|-5--------|------0-1-2|
A---7-7------|---5-5-----|---4-4-------|---3-3-3/-|1-1-1------|
E------------|-----------|-------------|----------|-----------|

       65           66          67             68           69    
G------------|-----------|-------------|-------------|------------|
D-3-3-3---1-3|-----------|1-1-1-1-1-0--|-------0-1-2-|-3-3-3---1-3|
A-------3----|3-3-----1-2|------------3|-1-1-1-------|-------3----|
E------------|----3-3----|-------------|-------------|------------|

        70           71             72              73
G------------|----------------|--------------|--------------|
D------------|----------------|--------------|--------------|
A-3-3-----1-2|-7-7-7-7-7-7-7-7|-7-7-7-7-7-7-7|-7-7-----5-6--|
E-----3-3----|----------------|--------------|-----7-7------|

       74             75            76             77
G--------------|--------------|--------------|--------------|
D--------------|--------------|--------------|--------------|
A-7-7-----5-6--|-7-7-----5-6--|-7-7-----5-6--|-7-7-----5-6--|
E-----7-7------|-----7-7------|-----7-7------|-----7-7------|

        78            79               80           81     
G--------------|--------------|--------------|--------------|
D--------------|--------------|---------5-6--|-7-7---5-6-7--|
A-7-7-----5-6--|-7-7-----5-6--|-7-7-7-7------|-----7--------|
E-----7-7------|-----7-7------|--------------|--------------|

      82           83            84             85        
G------------|------------|--------------|--------------|
D-7---5-7-6--|-4-----4-4--|-5-5-----4-5--|-7-7---5-6-7--|
A---7--------|---4-7------|-----5-5------|-----7--------|
E------------|------------|--------------|--------------|


       86           87          88              89            
G------------|------------|--------------|--------------|
D-7---5-7-4--|-4-----4-4--|-5-5-----4-5--|-7-7---5-6-7--|
A---7--------|---4-7------|-----5-5------|-----7--------|
E------------|------------|--------------|--------------|

       90           91           92            93
G------------|------------|--------------|--------------|
D-7---5-7-4--|-4-----4-4--|-5-5-----4-5--|-7-7---5-6-7--|
A---7--------|---4-7------|-----5-5------|-----7--------|
E------------|------------|--------------|--------------|

       94          95             96             97
G------------|------------|--------------|--------------|
D-7---5-7-4--|-4-----4-4--|-5-5-----4-5--|-7-7---5-6-7--|
A---7--------|---4-7------|-----5-5------|-----7--------|
E------------|------------|--------------|--------------|

       98          99           100             101
G------------|------------|--------------|--------------|
D-7---5-7-4--|-4-----4-4--|-5-5-----4-5--|--------------|
A---7--------|---4-7------|-----5-5------|-0------------|
E------------|------------|--------------|--------------|





Comments


Popular Alice Cooper tabs & chords
Feed My Frankenstein 2 Bass Tabs
Shoe Salesman Chords
Stolen Prayer Chords
Department Of Youth Tabs
Man Of The Year Tabs
My Stars 2 Tabs
Pick Up The Bones 2 Tabs
Sick Things 1 Tabs
Vengeance Is Mine Tabs
Woman Of Mass Distraction Tabs


Song lyrics



↑ Back to top | Tablatures and chords are parodies/interpretations of the original songs. You may use it for private study, scholarship, research or language learning purposes only
© 2014 AZChords.com Contact us | Privacy policy | DMCA | Add/correct tabs | Request tabs | Top 50 tabs