» » »

Hypnotized Tabs (ver.1)

Artists:  A B C D E F G H I J K L M N O P Q R S T U V W X Y Z # 

Hypnotized Tabs (ver.1)

Akon
Rating:
4/5 (3 votes)

Hard to play? Try these video lessons and learn fast.
                This song isn't the greatest thing I've ever heard on the radio. But it has a damn 
guitar riff!! And since no one tabbed it out yet, I figure I'd save everyone the (slight bit) 
trouble trying to learn it by ear.

Enjoy!


/ = SLIDE

// = QUICK SLIDE

h = HAMMER ON

p = PULL OFF


e------------------------------5------------------|
B---------6h8p6------5---------6------------------|
G-------5---------5--5-------7-------5h7-5h7------|
D-----7---------5----------7----------------5h7---|
A---5---------------------------------------------|
E------------5----------/6------------------------|


e-------------------------------------------------------------|
B---------6h8p6--------13---15--------------------------------|
G-------5----------12--12---14-----13-----9-------------------|
D-----7----------14---------15-----12-----10------------------|
A---5--------/12-------------------14-----12--h10-13-//15-p13-|
E--------------------------/13----/12----/10------------------|

* I don't usually play this part at the end: [--h10-13-//15-p13-] in order to keep the 
going better. But it's definitely in the song if you listen closely!

*Also remember to use your thumb to play the bass notes on the low E string and to let 
ring out as much as possible! -- Just listen to the song if you're having problems with 
timing. ;]
            
Hard to play? Try these video lessons and learn fast. | Correct




comments powered by Disqus
↑ Back to top | Tablatures and chords are parodies/interpretations of the original songs. You may use it for private study, scholarship, research or language learning purposes only