» » »

I Wanna Love You Tabs (ver.1)

Artists:  A B C D E F G H I J K L M N O P Q R S T U V W X Y Z # 

I Wanna Love You Tabs (ver.1)

Akon
Rating:
2/5 (1 vote)

Hard to play? Try these video lessons and learn fast.
                E -7-7-7-7-5---7-5-5-7-9-9-7-----7-7-7-7-5-5-7-7-5-5---5-7-9-9-7----------------|
B -----------7---------------------------------------7--------------------------|
G ------------------------------------------------------------------------------|
D ------------------------------------------------------------------------------|
A ------------------------------------------------------------------------------|
E ------------------------------------------------------------------------------|

E -7-7-7-7-5---5-7-9-9---x2----------------------------------------------------|
B -----------7-----------------------------------------------------------------|
G -----------------------------------------------------------------------------|
D -----------------------------------------------------------------------------|
A -----------------------------------------------------------------------------|
E -----------------------------------------------------------------------------|


Chords

Am - 002210
F  - 033210
C  - 032010
G  - 032033

Progression is  Am, F, C, G.  Match the strumming pattern with the song
            
Hard to play? Try these video lessons and learn fast. | Correct




comments powered by Disqus
↑ Back to top | Tablatures and chords are parodies/interpretations of the original songs. You may use it for private study, scholarship, research or language learning purposes only