>
 >
We Could Happen

We Could Happen Guitar Tabs

Aj Rafael - We Could Happen chords, tabs, tablatures, lyrics

Guitar lessons | Add/correct | Request | Top 50 tabs Artists:  A B C D E F G H I J K L M N O P Q R S T U V W X Y Z 0-9

We Could Happen Guitar Tabs – Aj Rafael

CD, Sheet music, Poster

Do you like We Could Happen? Share with your friends now
ChordsChords v2Chords v3Chords v4Chords v5TabsTabs v2Ukulele
Aj Rafael
~We Could Happen(studio version)



[Intro]

E|------------------5/7--10/12-10-7--------12/10-10-7---------------|
B|---------8--8-10--------------------8-10------------10-8---7-8----|
G|---------------------------------------------------------------7~-|
D|------------------------------------------------------------------|
A|------------------------------------------------------------------|
E|------------------------------------------------------------------|


E|---------------7/8-7----------|
B|---7-8-----7-8--------8-10-8~-|
G|-------5~---------------------|
D|------------------------------|
A|------------------------------|
E|------------------------------|


[Verse 1]

G             Bm
i'll hold the door

            Em          Dm       G7      C
please come in and just sit here for a while

        Bm          A                D7         G
this is my way of telling you i need you in my life

         Bm                Em
it's so cold without your touch

          Dm       G7        C
i've been dreaming way too much

         Bm           A      D7
can we just turn this into reality


[Chorus]

      G                           D
cuz ive been thinking bout you lately

               Em                Cm            G
maybe you can save me from this crazy world we live in

                D
I know we could happen cuz you know

      Em               Cm 
that ive been feeling you.

[Verse 2]

G                  Bm        Em
storms they will come but i know

          Dm        G7    C
that the sun will shine again

           Bm          A              D7
he's my friend and he says that we belong together

G            Bm                Em
i'll sing a song to break the ice

         Dm            G7      C
just a smile from you would suffice

         Bm       A                 D7
its not me being nice girl this is real tonight

[Chorus]

      G                           D
cuz ive been thinking bout you lately

               Em                Cm            G
maybe you can save me from this crazy world we live in

                D
I know we could happen cuz you know

      Em               Cm 
that ive been feeling you.


[Bridge}

Em         Bm7     G               A
there's no other, there's no other love

Em       Bm7     G       A
that I'd rather have... no.

Em          Bm7    G                   A 
there ain't no one there ain't no one else

C                A
i want you for myself.

[Chorus (2x)] (no strumming until world for the first time):

                                 
cuz ive been thinking bout you lately

                                       Cm            G
maybe you can save me from this crazy world we live in

                D
I know we could happen cuz you know

      Em               Cm 
that ive been feeling you.


[Outro]
E|------------------5/7--10/12-10-7--------12/10-10-7---------------|
B|---------8--8-10--------------------8-10------------10-8---7-8----|
G|---------------------------------------------------------------7~-|
D|------------------------------------------------------------------|
A|------------------------------------------------------------------|
E|------------------------------------------------------------------|


E|---------------7/8-7-----------10h12-7-10--15-14--12-10--7h8-7----|
B|---7-8-----7-8--------8-10-8~----------------------------------8--|
G|-------5~---------------------------------------------------------|
D|------------------------------------------------------------------|
A|------------------------------------------------------------------|
E|------------------------------------------------------------------|

                        A    D7    G
e|--5--3----------------o-----2----3-----
B|--------7h8----7h8----3-----1----3-----
G|------------7---------3-----2----o-----
D|----------------------3-----o----o-----
A|----------------------o-----x----2-----
E|----------------------x-----x----3-----


| /   slide up
| \   slide down
| h   hammer-on
| x   Mute note


1st Tab. Though I only figured out the Outro of the song, 
I just thought it would be less of a hassle for you guys 
to have the entire tab and chords of the song. The Chords 
and the Intro Tab were from the other chord/tabs posted 
on here. Let me know how I did or any mistakes I have made 
on the Outro Tab.

Thanks for checking this out. 

-Victoria.





Comments


Popular Aj Rafael tabs & chords
Emma Watson Chords
I Just Want You 2 Chords
Mess Weve Made 2 Chords
My Soldier Chords
Red Roses 4 Chords
Something Happens Chords
When We Say (Juicebox) Chords
500 Days Ukulele
My Soldier Ukulele
Without You Ukulele


Song lyrics



↑ Back to top | Tablatures and chords are parodies/interpretations of the original songs. You may use it for private study, scholarship, research or language learning purposes only
© 2014 AZChords.com Contact us | Privacy policy | DMCA | Add/correct tabs | Request tabs | Top 50 tabs