>
 >
We Could Happen 1

We Could Happen 1 Chords

Aj Rafael - We Could Happen 1 chords, tabs, tablatures, lyrics

Guitar lessons | Add/correct | Request | Top 50 tabs Artists:  A B C D E F G H I J K L M N O P Q R S T U V W X Y Z 0-9

We Could Happen 1 Chords – Aj Rafael

CD, Sheet music, Poster

Do you like We Could Happen 1? Share with your friends now
ChordsChords v2Chords v3Chords v4Chords v5TabsTabs v2Ukulele
[We Could Happen] Aj Rafael

The chord section is written by angelomas, it can be found here:

It sounds a little lower than what is played in the studio version, 
but it'll work fine. If and when I figure out the chords, I'll update,
thanks!

Although the intro and outro tabs are written the way I play them,
they should sound exactly like the studio recording. If you have any
profile.

[Intro]

E|----------------------10-10/12-10-------------10/12-10------------|
B|-------8--8-10-10/12--------------10/12--8-10----------10/12-10-8-|
G|------------------------------------------------------------------|
D|------------------------------------------------------------------|
A|------------------------------------------------------------------|
E|------------------------------------------------------------------|

E|------------------------------------------------------------------|
B|--7-8----7-8-----8-10-/13--12-8-10--------------------------------|
G|------7------6----------------------------------------------------|
D|------------------------------------------------------------------|
A|------------------------------------------------------------------|
E|------------------------------------------------------------------|


[Verse 1]

G             Bm
I'll hold the door,

            Em          Dm       G7    C
please come in and just sit here for a while.

        Bm        A                  D7        G
This is my way of telling you I need you in my life.

        Bm                Em
It's so cold without your touch,

          Dm       G7      C
I've been dreaming way too much.

       Bm             A    D7
Can we just turn this into reality?


[Chorus]

      G                            D
Cause I've been thinking 'bout you lately,

              Em                Cm             G
maybe you can save me from this crazy world we live in.

                D
I know we could happen, cause you know

     Em                Cm 
that I've been feeling you.


[Intro Riff]

E|----------------------10-10/12-10-------------10/12-10------------|
B|-------8--8-10-10/12--------------10/12--8-10----------10/12-10-8-|
G|------------------------------------------------------------------|
D|------------------------------------------------------------------|
A|------------------------------------------------------------------|
E|------------------------------------------------------------------|

E|------------------------------------------------------------------|
B|--7-8----7-8-----8-10-/13--12-8-10--------------------------------|
G|------7------6----------------------------------------------------|
D|------------------------------------------------------------------|
A|------------------------------------------------------------------|
E|------------------------------------------------------------------|


[Verse 2]

G                Bm         Em
Storms they will come, but I know

         Dm       G7    C
that the sun will shine again.

        Bm            A            D7
He's my friend and he says that we belong together.

G           Bm                 Em
I'll sing a song, to break the ice,

       Dm             G7    C
just a smile from you would suffice.

         Bm       A                   D7
It's not me being nice, girl, this is real tonight.


[Chorus]

      G                            D
Cause I've been thinking 'bout you lately,

              Em                Cm             G
maybe you can save me from this crazy world we live in.

                D
I know we could happen, cause you know

     Em                Cm 
that I've been feeling you.


[Bridge]

Em         Bm7    G                A
There's no other, there's no other love,

Em       Bm7    G       A
that I'd rather have... no.

Em          Bm7     G                   A 
There ain't no one, there ain't no one else.

C              A
I want you for myself.


[Chorus] No strumming until 'world'.

                                  
Cause I've been thinking 'bout you lately,

                                      Cm             G
maybe you can save me from this crazy world we live in.

                D
I know we could happen, cause you know

     Em                Cm 
that I've been feeling you.

(I know you want me).

[Chorus]

      G                            D
Cause I've been thinking 'bout you lately,

              Em                Cm             G
maybe you can save me from this crazy world we live in.

                D
I know we could happen, cause you know

     Em                Cm 
that I've been feeling you.

(I know you want me too, I know you want me too).


[Outro]

e|----------------------10-10/12-10-------------10/12-10------------|
B|-------8--8-10-10/12--------------10/12--8-10----------10/12-10-8-|
G|------------------------------------------------------------------|
D|------------------------------------------------------------------|
A|------------------------------------------------------------------|
E|------------------------------------------------------------------|

e|--------------------------------------10h12-10-----10-15-14-12-10-|
B|--7-8----7-8-----8-10-/13--12-8-10-8------------12----------------|
G|------7------6----------------------------------------------------|
D|------------------------------------------------------------------|
A|------------------------------------------------------------------|
E|------------------------------------------------------------------|

e|-------10--------------------0---3---3----------------------------|
B|-10/12----12/10-8--7-8---7-8-2---3---3----------------------------|
G|-----------------------7-----2---2---0----------------------------|
D|-----------------------------2---0---0----------------------------|
A|-----------------------------0---0---2----------------------------|
E|-----------------------------0---0---3----------------------------|





Comments


Popular Aj Rafael tabs & chords
I Just Want You 1 Chords
Jetsetter Chords
Mess Weve Made 1 Chords
More Than A Title 1 Chords
She Was Mine 4 Chords
When We Say (Juicebox) 2 Chords
Without You 3 Chords
Life Happens Tabs
She Was Mine Ukulele
We Could Happen Ukulele


Song lyrics



↑ Back to top | Tablatures and chords are parodies/interpretations of the original songs. You may use it for private study, scholarship, research or language learning purposes only
© 2014 AZChords.com Contact us | Privacy policy | DMCA | Add/correct tabs | Request tabs | Top 50 tabs