» » »

We Sleep Forever Tabs (ver.4)

Artists:  A B C D E F G H I J K L M N O P Q R S T U V W X Y Z # 

We Sleep Forever Tabs (ver.4)

Aiden
Rating:
0/5 (0 votes)

Hard to play? Try these video lessons and learn fast.
                (Intro)
The intro is deffintaley this

This is the intro

E-----------------------------------------------------|
B-----------------------------------------------------|
G------13-----11----10---------13-----11----10--------|
D---8-----8-8----8-8---88---8-----8-8----8-8---88-----|
A-----------------------------------------------------|
D-----------------------------------------------------|


And then the begingin part of the song is

E-----------------------------------------------------------|
B-----------------------------------------------------------|
G-----------------------------------------------------------|
D-8-----6-----5---4---8-----6-----5---4---8-----6-----4---6-|
A-8-----6-----5---4---8-----6-----5---4---8-----6-----4---6-|
D-8-----6-----5---4---8-----6-----5---4---8-----6-----4---6-|


This is only the intro and the fuirst part is also played during the second part and i 
quite got the whole song right and if i made any mistakes let me know
            
Hard to play? Try these video lessons and learn fast. | Correct




comments powered by Disqus
↑ Back to top | Tablatures and chords are parodies/interpretations of the original songs. You may use it for private study, scholarship, research or language learning purposes only