>
 >
We Sleep Forever 2

We Sleep Forever 2 Guitar Tabs

Aiden - We Sleep Forever 2 chords, tabs, tablatures, lyrics

Guitar lessons | Add/correct | Request | Top 50 tabs Artists:  A B C D E F G H I J K L M N O P Q R S T U V W X Y Z 0-9

We Sleep Forever 2 Guitar Tabs – Aiden

CD, Sheet music, Poster

Do you like We Sleep Forever 2? Share with your friends now
Bass TabsTabsTabs v2Tabs v3Tabs v4Tabs v5
-------------------------------------------------------------------------------
                             We Sleep Forever - Aiden
-------------------------------------------------------------------------------

Tuning: Standard

3 Second Intro

Guitar 1

e|---------------------------------------------------------------|
B|-10--------8---------7------------10--------8---------7--------|
G|---------------------------------------------------------------|  x 1
D|---------------------------------------------------------------|
A|---------------------------------------------------------------|
E|---------------------------------------------------------------|

Guitar 2

e|---------------------------------------------------------------|
B|---------------------------------------------------------------|
G|----13-12-----13-12-----12-13-12-----13-12-----13-12-----13-12-|  x 1
D|---------------------------------------------------------------|
A|-13--------13--------13-----------13--------13--------13-------|
E|---------------------------------------------------------------|

[Chorus]

Guitar 1

e|---------------------  ----------|         
B|-------10----8----7--  ------7---|         
G|---------------------  ----------|         
D|-8--------8----8-----x3--8-8---8-|x 1      
A|---------------------  ----------|         
E|---------------------  ----------|  

e|---------------------  --------------------------|
B|-------10----8----7--  ------7--------7--------9-|
G|---------------------  --------------------------|
D|-8--------8----8-----x3--8-8---8--8-8---8--8-8---|
A|---------------------  --------------------------|
E|---------------------  --------------------------|       

Guitar 2

e|-------------------------------------------------------------------------------|
B|-------------------------------------------------------------------------------|
G|-------------------------------------------------------------------------------|
D|-8--8-8-8-6--6-6666-4--4-4-4-6--6-6666---8--8-8-8-6--6-6666-4--4-4-6--6-xxxxxx-|
A|-8--8-8-8-6--6-6666-4--4-4-4-6--6-6666---8--8-8-8-6--6-6666-4--4-4-6--6-xxxxxx-|
E|-6--6-6-6-4--4-4444-2--2-2-2-4--4-4444---6--6-6-6-4--4-4444-2--2-2-4--4-xxxxxx-|

e|-----------------------------------------------------------------------------------------------|
B|-----------------------------------------------------------------------------------------------|
G|-----------------------------------------------------------------------------------------------|
D|-8--8-8-8-6--6-6666-4--4-4-4-6--6-6666---8--8-8-8-6--6-6666-4--4-4-4-4-4-4-4-4-6-6-6-6-6-6-6-6-|
A|-8--8-8-8-6--6-6666-4--4-4-4-6--6-6666---8--8-8-8-6--6-6666-4--4-4-4-4-4-4-4-4-6-6-6-6-6-6-6-6-|
E|-6--6-6-6-4--4-4444-2--2-2-2-4--4-4444---6--6-6-6-4--4-4444-2--2-2-2-2-2-2-2-2-4-4-4-4-4-4-4-4-|

[Verse 1][Halfway Through Verse]

e|---------------------------------------4444-|     
B|-2h44444-2h44444-2h444-2h44444-2h44444------|     
G|--------------------------------------------| x 2 
D|--------------------------------------------|     
A|--------------------------------------------|     
E|--------------------------------------------|     

e|-------------------------|
B|-2h44444-2h44444-2h444-4-|
G|-------------------------|
D|-------------------------|
A|-------------------------|
E|-------------------------|

[Guitar 2][Just Before Chorus]

e|-------------------|
B|---10-8---7-8--7-5-|
G|-------------------|
D|-8------8----------|
A|-------------------|
E|-------------------|



[Chorus]

  

[Verse 2]

Guitar 1

e|---------------------------------------4444-|     
B|-2h44444-2h44444-2h444-2h44444-2h44444------|     
G|--------------------------------------------| x 4 
D|--------------------------------------------|     
A|--------------------------------------------|     
E|--------------------------------------------|   

e|-------------------------|
B|-2h44444-2h44444-2h444-4-|
G|-------------------------|
D|-------------------------|
A|-------------------------|
E|-------------------------|

Guitar2

e|-------------------|
B|---10-8---7-8--7-5-|
G|-------------------|
D|-8------8----------|
A|-------------------|
E|-------------------|



[Chorus]



I Dont Know This Part =| Sorry People


[Interlude]


e|-------------------------------------------------------------------------|
B|-------------------------------------------------------------------------|
G|-------------------------------------------------------------------------|x2
D|-4-4-4-4-4-4-4-4-6-6-6-6-6-6-6-6-8-8-8-8-8-8-8-8-10-10-10-10-12-12-12-12-|   
A|-4-4-4-4-4-4-4-4-6-6-6-6-6-6-6-6-8-8-8-8-8-8-8-8-10-10-10-10-12-12-12-12-|
E|-2-2-2-2-2-2-2-2-4-4-4-4-4-4-4-4-6-6-6-6-6-6-6-6-8--8--8--8--10-10-10-10-|

e|-----------------------------------------------------------------|
B|-----------------------------------------------------------------|
G|-----------------------------------------------------------------|
D|-4-4-4-4-4-4-4-4-3-3-3-3-3-3-3-3-2-2-2-2-2-2-2-2-x-x-x-x-x-x-x-x-|
A|-4-4-4-4-4-4-4-4-3-3-3-3-3-3-3-3-2-2-2-2-2-2-2-2-x-x-x-x-x-x-x-x-|
E|-2-2-2-2-2-2-2-2-1-1-1-1-1-1-1-1-0-0-0-0-0-0-0-0-x-x-x-x-x-x-x-x-|

[Final Chorus]

Guitar 1

e|---------------------  ----------|         
B|-------10----8----7--  ------7---|         
G|---------------------  ----------|         
D|-8--------8----8-----x3--8-8---8-|      
A|---------------------  ----------|         
E|---------------------  ----------|  

e|---------------------  --------------------------|
B|-------10----8----7--  ------7--------7--------9-|
G|---------------------  --------------------------|
D|-8--------8----8-----x3--8-8---8--8-8---8--8-8---|
A|---------------------  --------------------------|
E|---------------------  --------------------------| 
     
Guitar 2

e|-------------------------------------------------------------------------------|
B|-------------------------------------------------------------------------------|
G|-------------------------------------------------------------------------------|
D|-8--8-8-8-6--6-6666-4--4-4-4-6--6-6666---8--8-8-8-6--6-6666-4--4-4-6--6-xxxxxx-|
A|-8--8-8-8-6--6-6666-4--4-4-4-6--6-6666---8--8-8-8-6--6-6666-4--4-4-6--6-xxxxxx-|
E|-6--6-6-6-4--4-4444-2--2-2-2-4--4-4444---6--6-6-6-4--4-4444-2--2-2-4--4-xxxxxx-|

e|---------------------------------------------------------------------------------------------------|
B|---------------------------------------------------------------------------------------------------|
G|---------------------------------------------------------------------------------------------------|x2
D|-8--8-8-8-6--6-6666-4--4-4-4-6--6-6666---8--8-8-8-6--6-6666-4--4-4-4-4-4-4-4-4-6-6-6-6-x-x-x-x-x-x-| 
A|-8--8-8-8-6--6-6666-4--4-4-4-6--6-6666---8--8-8-8-6--6-6666-4--4-4-4-4-4-4-4-4-6-6-6-6-x-x-x-x-x-x-|
E|-6--6-6-6-4--4-4444-2--2-2-2-4--4-4444---6--6-6-6-4--4-4444-2--2-2-2-2-2-2-2-2-4-4-4-4-x-x-x-x-x-x-|

[End]

e|---|
B|---|
G|---|
D|-4-|
A|-4-|
E|-2-|

Enjoy =]

| /  slide up
| \  slide down
| h  hammer-on
| p  pull-off
| ~  vibrato
| +  harmonic
| x  Mute note
===============================================================================





Comments


Popular Aiden tabs & chords
Its Cold Tonight 2 Bass Tabs
Let The Right One In Bass Tabs
The Last Sunrise Bass Tabs
City Is Far From Here Tabs
Die Romantic 3 Tabs
Goodbye We're Falling Fast Tabs
I Set My Friends On Fire 1 Tabs
King On Holiday Tabs
There Will Be Blood Tabs
The Sky Is Falling Ukulele


Song lyrics



↑ Back to top | Tablatures and chords are parodies/interpretations of the original songs. You may use it for private study, scholarship, research or language learning purposes only
© 2014 AZChords.com Contact us | Privacy policy | DMCA | Add/correct tabs | Request tabs | Top 50 tabs