» » »

We Sleep Forever Tabs

Artists:  A B C D E F G H I J K L M N O P Q R S T U V W X Y Z # 

We Sleep Forever Tabs

(ver. 1)
Aiden Tabs
 Rating:
4/5 (4 votes)
    We Sleep Forever lessons Tabs too difficult? Try these video lessons and learn fast
                Intro
E|--------------------------------------------------|
B|--------------------------------------------------|
G|----13------11-------10---------------------------| 2X's
D|--------------------------------------------------|
A|--13--13-13----13-13------------------------------|
D|--------------------------------------------------|


                   play this on the \/ 4th time
E|--------------------------------------------------|
B|--------------------------------------------------|
G|----------------------------------|-8X's-3X's-----|
D|-8-88--6-66--4-44--6-66--XXXX-----| 4---6----666--|4X's
A|-8-88--6-66--4-44--6-66--XXXX-----|-4---6----666--|
D|-8-88--6-66--4-44--6-66--XXXX-----|-4---6----666--|
   play this in secong time^^^^around

Break For Drum And Bass Line Here

E|-----------------------------|
B|---5X's----------------------|
G|----------888----------------|Play the whole thing 3X's
D|-7h8-888---------------------|
A|-End---^-here-on-the-3-------|rd-time
D|-----------------------------|
PM =======


E|--------------------------------------------------|
B|--------------------------------------------------|
G|----13------11-------10---------------------------|1X
D|--------------------------------------------------|
A|--13--13-13----13-13------------------------------|
D|--------------------------------------------------|


                   play this on the \/ 4th time
E|--------------------------------------------------|
B|--------------------------------------------------|
G|----------------------------------|-8X's-3X's-----|
D|-8-88--6-66--4-44--6-66--XXXX-----| 4---6----666--|4X's
A|-8-88--6-66--4-44--6-66--XXXX-----|-4---6----666--|
D|-8-88--6-66--4-44--6-66--XXXX-----|-4---6----666--|
   play this in secong time^^^^around

E|--------------------------------|
B||---5X's-||---------------------|
G||--------||-888-----------------|This time play  the whole thing 5X's
D||-7h8-888||---------------------|
A||-End---^||-here-on-the-3-------|rd-time
D|--------------------------------|
PM =======

E|--------------------------------------------------|
B|--------------------------------------------------|
G|----13------11-------10---------------------------|1X
D|--------------------------------------------------|
A|--13--13-13----13-13------------------------------|
D|--------------------------------------------------|


                   play this on the \/ 4th time
E|-------------------------------------------------------|
B|-------------------------------------------------------|
G|----------------------------------|-8X's-3X's----------|
D|-8-88--6-66--4-44--6-66--XXXX-----| 4---6----XXXX-6----| 4X's
A|-8-88--6-66--4-44--6-66--XXXX-----|-4---6----XXXX-6----|
D|-8-88--6-66--4-44--6-66--XXXX-----|-4---6----XXXX-6----|
   play this in secong time^^^^around

                         \/Bridge\/
E|-----------------------------------------------------|
B|-----------------------------------------------------|
G|-------------- 7X's-----7X's-----7X's----------------|Play 4 Times
D|-8-8888888--11--11--13--13----15--15-----11--666-----|
A|-8-8888888--11--11--13--13----15--15-----11--666-----|
D|-8-8888888--11--11--13--13----15--15-----11--666-----|
PM   =======     ==                 ==         ===

Theirs some melody played backing the bridge but i cant make it out


E|---------------|
B|---------------|
G|---------------|
D|--8----6---4---|Play Once
A|--8----6---4---|
D|--8----6---4---|

E|----------------------------------------------------------|
B|----------------3X's----------------3X's------------------|
G|-----4X's--13----10-----4X's--13----10-----4X's-----------|
D|-------8----x----x-------6----x-----x-------4-------------|2X's
A|-------8---11----8-------6----11----8-------4-------------|
D|-------8-----------------6------------------4-------------|


E|---------------------------------------|
B|---------------------------------------|
G|---------------------------------------|
D|-33333333--3---------------------------|
A|-33333333--3---------------------------|
D|-33333333--3---------------------------|
PM ========

   Play This 3X's                     Play This 1X
E|----------------------------------------------------------|
B|----------------------------------------------------------|
G|----------------------------------|-8X's-3X's-------------|
D|-8-88--6-66--4-44--6-66-----------| 4---6----666----------|
A|-8-88--6-66--4-44--6-66-----------|-4---6----666----------|
D|-8-88--6-66--4-44--6-66-----------|-4---6----666----------|


   Play Ths 3X's
E|-----------------------------------------------------|
B|-----------------------------------------------------|
G|----------------------------------|-8X's-3X's--------|
D|-8-88--6-66--4-44--6-66--XXXX-----| 4---6------3-----|
A|-8-88--6-66--4-44--6-66--XXXX-----|-4---6------3-----|
D|-8-88--6-66--4-44--6-66--XXXX-----|-4---6------3-----|
                                             Let ring
            
Submit corrections

↑ Back to top | Aiden Tabs for We Sleep Forever. Lyrics for acoustic guitar and electric guitar. Tablatures and chords are parodies/interpretations of the original songs. You may use it for private study, scholarship, research or language learning purposes only