>
 >
The Last Sunrise

The Last Sunrise Bass Tabs

Aiden - The Last Sunrise chords, tabs, tablatures, lyrics

Guitar lessons | Add/correct | Request | Top 50 tabs Artists:  A B C D E F G H I J K L M N O P Q R S T U V W X Y Z 0-9

The Last Sunrise Bass Tabs – Aiden

CD, Sheet music, Poster

Do you like The Last Sunrise? Share with your friends now
Bass Tabs
Intro
Tunning= Dropped Db
T=256
4/4
Gtr I
                                                      3x
||------------|-----------|-----------|---------------||
||o-----------|-----------|-----------|--------------o||
||o-----------|-----------|-----------|-1-1---3-3----o||
||--0-0-------|-0-0-------|-0-0-------|---------------||


|-----------|-----------|-----------|----------||
|-----------|-----------|-----------|----------||
|-----------|-----------|-----------|----------||
|-0-0-------|-0-0-------|-0-0-------|--------0-||


Verse
|--------------|---------------|--------------|---------------|
|--------------|---------------|--------------|---------------|
|--------------|---------------|--------------|-------------1-|
|-(0)-0-0------|---0-0-0-0-0-0-|-(0)-0-0------|---0-0-0-0-0---|


|--------------|---------------|--------------|---------------|
|--------------|---------------|--------------|---------------|
|-(1)-1-1------|---1-1-1-1-1-3-|-(3)-3-3------|---3-3-3-3-3---|
|--------------|---------------|--------------|-------------0-|


|--------------|---------------|--------------|---------------|
|--------------|---------------|--------------|---------------|
|--------------|---------------|--------------|-------------1-|
|-(0)-0-0------|---0-0-0-0-0-0-|-(0)-0-0------|---0-0-0-0-0---|


|------------|---------------|--------------|---------------||
|------------|---------------|--------------|---------------||
|-1-1-1------|---1-1-1-1-1-3-|-(3)-3-3------|---3-3-3-3-3---||
|------------|---------------|--------------|-------------3-||


Bridge
2/4
|--------|--------|------|--------||
|--------|--------|------|--------||
|--------|--------|------|--------||
|-(3)----|-(3)----|-2----|-(2)----||


Chorus
4/4
|--------------|--------------|--------------|--------------|
|--------------|--------------|--------------|--------------|
|--------------|--------------|--------------|--------------|
|-3--3-3--3-3--|-3--3-3--3-3--|-3--3-3--3-3--|-3--3-3--3-3--|


|--------------|--------------|--------------|--------------|
|--------------|--------------|--------------|--------------|
|--------------|--------------|--------------|--------------|
|-0--0-0--0-0--|-0--0-0--0-0--|-0--0-0--0-0--|-0--0-0--0-0--|


|--------------|--------------|--------------|--------------|
|--------------|--------------|--------------|--------------|
|-1--1-1--1-1--|-1--1-1--1-1--|-1--1-1--1-1--|-1--1-1--1-1--|
|--------------|--------------|--------------|--------------|


|--------------|--------------|--------------|-----------------||
|--------------|--------------|--------------|-----------------||
|-3--3-3--3-3--|-3--3-3--3-3--|-3--3-3--3-3--|-3-3-3-3-3-3-3---||
|--------------|--------------|--------------|---------------0-||


Verse
|--------------|---------------|--------------|---------------|
|--------------|---------------|--------------|---------------|
|--------------|---------------|--------------|-------------1-|
|-(0)-0-0------|---0-0-0-0-0-0-|-(0)-0-0------|---0-0-0-0-0---|


|--------------|---------------|--------------|---------------|
|--------------|---------------|--------------|---------------|
|-(1)-1-1------|---1-1-1-1-1-3-|-(3)-3-3------|---3-3-3-3-3---|
|--------------|---------------|--------------|-------------0-|


|--------------|---------------|--------------|---------------|
|--------------|---------------|--------------|---------------|
|--------------|---------------|--------------|-------------1-|
|-(0)-0-0------|---0-0-0-0-0-0-|-(0)-0-0------|---0-0-0-0-0---|


|--------------|---------------|--------------|---------------||
|--------------|---------------|--------------|---------------||
|-(1)-1-1------|---1-1-1-1-1-3-|-(3)-3-3------|---3-3-3-3-3---||
|--------------|---------------|--------------|-------------0-||


Pre-Chorus
Half-Time T=256
|-----------------|---------------|---------------|----------------|
|-----------------|---------------|---------------|----------------|
|-----------------|-3---(3)--3-3--|-1----(1)-1--1-|-3----(3)-------|
|-(0)----(0)-0--0-|---------------|---------------|----------2-3-5-|


|---------------|---------------|---------------|----------------|---------||
|---------------|---------------|---------------|----------------|---------||
|---------------|-3---(3)--3-3--|-1----(1)-1--1-|-3----(3)-------|---------||
|-0----(0)-0--0-|---------------|---------------|----------2-3-5-|-3--2----||

Chorus
Original Tempo T=256
||---------------|--------------|--------------|---------------|
||o--------------|--------------|--------------|---------------|
||o--------------|--------------|--------------|---------------|
||--3--3-3--3-3--|-3--3-3--3-3--|-3--3-3--3-3--|-3--3-3--3-3---|


|--------------|--------------|--------------|--------------|
|--------------|--------------|--------------|--------------|
|--------------|--------------|--------------|--------------|
|-0--0-0--0-0--|-0--0-0--0-0--|-0--0-0--0-0--|-0--0-0--0-0--|


|--------------|--------------|--------------|--------------|
|--------------|--------------|--------------|--------------|
|-1--1-1--1-1--|-1--1-1--1-1--|-1--1-1--1-1--|-1--1-1--1-1--|
|--------------|--------------|--------------|--------------|


|--------------|--------------|--------------|------------------||
|--------------|--------------|--------------|-----------------o||
|-3--3-3--3-3--|-3--3-3--3-3--|-3--3-3--3-3--|-3-3-3-3-3-3-3-3-o||
|--------------|--------------|--------------|------------------||


Interlude
Half-Time T=256
|----------|-----------|-----------------|------------------|--------|
|----------|-----------|-----------------|------------------|--------|
|----------|-----------|-----------------|------------------|--------|
|-0--------|-8-------8-|-(8)s10-------10-|-(10)s12-------12-|-(12)s3-|


|-----------|-----------------|------------------|-----------||
|-----------|-----------------|------------------|-----------||
|-----------|-----------------|------------------|-----------||
|-8-------8-|-(8)s10-------10-|-(10)s12-------12-|-(12)s3----||


Interlude Pt. II
Original Tempo T=256
|---------------|---------------|---------------|---------------|
|---------------|---------------|---------------|---------------|
|-1--1-1-1-1-1--|-1--1-1-1-1-1--|-3--3-3-3-3-3--|-3--3-3-3-3-3--|
|---------------|---------------|---------------|---------------|


|---------------|---------------|---------------|---------------|
|---------------|---------------|---------------|---------------|
|-5--5-5-5-5-5--|-5--5-5-5-5-5--|---------------|---------------|
|---------------|---------------|-3--3-3-3-3-3--|-3--3-3-3-3-3--|


|---------------|---------------|---------------|-----------------||
|---------------|---------------|---------------|-----------------||
|-1--1-1-1-1-1--|-1--1-1-1-1-1--|-3--3-3-3-3-3--|-3-3-3-3-3-3-3---||
|---------------|---------------|---------------|---------------0-||


*Breakdown Verse*
|--------------|---------------|--------------|---------------|
|--------------|---------------|--------------|---------------|
|--------------|---------------|--------------|-------------1-|
|-(0)-0-0------|---0-0-0-0-0-0-|-(0)-0-0------|---0-0-0-0-0---|


|--------------|---------------|--------------|---------------||
|--------------|---------------|--------------|---------------||
|-(1)-1-1------|---1-1-1-1-1-3-|-(3)-3-3------|---3-3-3-3-3---||
|--------------|---------------|--------------|-------------0-||


Verse
|--------------|---------------|--------------|---------------|
|--------------|---------------|--------------|---------------|
|--------------|---------------|--------------|-------------1-|
|-(0)-0-0------|---0-0-0-0-0-0-|-(0)-0-0------|---0-0-0-0-0---|


|------------|---------------|--------------|---------------||
|------------|---------------|--------------|---------------||
|-1-1-1------|---1-1-1-1-1-3-|-(3)-3-3------|---3-3-3-3-3---||
|------------|---------------|--------------|-------------0-||


Pre-Chorus
Half-Time T=256
|-----------------|---------------|---------------|----------------|
|-----------------|---------------|---------------|----------------|
|-----------------|-3---(3)--3-3--|-1----(1)-1--1-|-3----(3)-------|
|-(0)----(0)-0--0-|---------------|---------------|----------2-3-5-|


|---------------|---------------|---------------|----------------|
|---------------|---------------|---------------|----------------|
|---------------|-3---(3)--3-3--|-1----(1)-1--1-|-3----(3)-------|
|-0----(0)-0--0-|---------------|---------------|----------2-3-5-|

|------||
|------||
|------||
|-3--2-||

Chorus
Original Tempo T=256
||---------------|--------------|--------------|---------------|
||o--------------|--------------|--------------|---------------|
||o--------------|--------------|--------------|---------------|
||--3--3-3--3-3--|-3--3-3--3-3--|-3--3-3--3-3--|-3--3-3--3-3---|


|--------------|--------------|--------------|--------------|
|--------------|--------------|--------------|--------------|
|--------------|--------------|--------------|--------------|
|-0--0-0--0-0--|-0--0-0--0-0--|-0--0-0--0-0--|-0--0-0--0-0--|


|--------------|--------------|--------------|--------------|
|--------------|--------------|--------------|--------------|
|-1--1-1--1-1--|-1--1-1--1-1--|-1--1-1--1-1--|-1--1-1--1-1--|
|--------------|--------------|--------------|--------------|


|--------------|--------------|--------------|------------------||
|--------------|--------------|--------------|-----------------o||
|-3--3-3--3-3--|-3--3-3--3-3--|-3--3-3--3-3--|-3-3-3-3-3-3-3-3-o||
|--------------|--------------|--------------|------------------||

Outro                                                      3x
||------------|-----------|-----------|---------------||
||o-----------|-----------|-----------|--------------o||
||o-----------|-----------|-----------|-1-1---3-3----o||
||--0-0-------|-0-0-------|-0-0-------|---------------||


|-----------|-----------|-----------|-----------|
|-----------|-----------|-----------|-----------|
|-----------|-----------|-----------|-1----3----|
|-0-0-------|-0-0-------|-0-0-------|-----------|


                            >
|-----------|------------|------------|------------|-----*|
|-----------|------------|------------|------------|-----*|
|-----------|------------|------------|------------|-----*|
|-0-0-------|-(0)--------|-(0)--------|-(0)--------|-----*|





Comments


Popular Aiden tabs & chords
Unbreakable Bass Tabs
The Sky Is Falling Chords
Deactivate Tabs
Die Romantic 3 Tabs
Hysteria 2 Tabs
I Set Mt Friends On Fire Tabs
Last Sunrise Tabs
Last Sunrise 3 Tabs
Life I Left Behind 1 Tabs
The Sky Is Falling Ukulele


Song lyrics



↑ Back to top | Tablatures and chords are parodies/interpretations of the original songs. You may use it for private study, scholarship, research or language learning purposes only
© 2014 AZChords.com Contact us | Privacy policy | DMCA | Add/correct tabs | Request tabs | Top 50 tabs