>
 >
Last Sunrise 6

Last Sunrise 6 Guitar Tabs

Aiden - Last Sunrise 6 chords, tabs, tablatures, lyrics

Guitar lessons | Add/correct | Request | Top 50 tabs Artists:  A B C D E F G H I J K L M N O P Q R S T U V W X Y Z 0-9

Last Sunrise 6 Guitar Tabs – Aiden

CD, Sheet music, Poster

Do you like Last Sunrise 6? Share with your friends now
Bass TabsBass Tabs v2TabsTabs v2Tabs v3Tabs v4Tabs v5Tabs v6
I tabbed this and then played along to the real song so im 100% sure that its correct 
the possible exception of gt2's pre-Chorus. enjoy& rate fairly.
                  Last Sunrise : Aiden

sorry about the solo this it was an accident when filling this thing out

           KEY
\    slide down
/    slide up
\\\  pick slide
*    pinch harmonic
t    tap
b    bend
r    release bend
h    hammer on
p    pull off
#   natural harmonic

Drop Db (drop D +  step down)

Intro/outro Gt.1                              4x
|--------------------------------------------------------------|
|--------------------------------------------------------------|
|--------------------------------------------------------------|
|----7p0-5p0-7p0----7p0-5p0-7p0----7p0-5p0-7p0-8p0-7p0-5h7-5h7-|
|-00-------------00-------------00-----------------------------|
|-00-------------00-------------00-----------------------------|
Pm..             ..             ..

Intro gt.2                              4x
|--------------------------------------------------------------|
|--------------------------------------------------------------|
|--------------------------------------------------------------|
|----3p0-2p0-3p0----3p0-2p0-3p0----3p0-2p0-3p0-5p0-3p0-2h3-2h3-|
|-00-------------00-------------00-----------------------------|
|-00-------------00-------------00-----------------------------|
Pm..             ..             ..


Verse gt.1                 2x
|------------------------------------------------------------------------|
|------------------------------------------------------------------------|
|--------------------------------------3--3-3----3-3--3-5--5-5----5-5--5-|
|--0-0--0-0----0-0--0-0--0-0----0-0--0-3--3-3----3-3--3-5--5-5----5-5--5-|
|--0-0--0-0----0-0--0-0--0-0----0-0--0-1--1-1----1-1--1-3--3-3----3-3--3-|
|--0-0--0-0----0-0--0-0--0-0----0-0--0-----------------------------------|

Verse gt.2                 2x
|------------------------------------------------------------------------|
|------------------------------------------------------------------------|
|-1414141414141414141414141414141414141414141414141414141414141414141414-|
|--x-x-x-x-x-x-x-x-x-x-x-x-x-x-x-x-x-x-x-x-x-x-x-x-x-x-x-x-x-x-x-x-x-x-x-|
|-1212121212121212121212121212121212121212121212121212121212121212121212-|
|------------------------------------------------------------------------|

Fill gt.1
|---------|
|---------|
|-10---9--|
|--x---x--|
|--8---7--|
|---------|

Fill gt.2
|---------|
|---------|
|-10---12-|
|--x----x-|
|--8---10-|
|---------|


Chorus gt.1
|------------------------------------------------------------------|
|------------------------------------------------------------------|
|----------------------------------3333333333333333555555555555555-|
|--333333333333333300000000000000003333333333333333555555555555555-|
|--333333333333333300000000000000001111111111111111333333333333333-|
|--33333333333333330000000000000000--------------------------------|

Chorus Gt. 2    (3x) note: strum both
|-------------------|   |----------------|
|-------------------|   |----------------|
|-14---17---15---14-|   |-9----10----12--|
|--x----x----x----x-|   |-x-----x-----x--|
|-12---15---13---12-|   |-7-----8----10--|
|-------------------|   |----------------|

Verse

Pre-Chorus gt.1
|---------------------------------------------|
|---------------------------------------------|
|------------5---3-2-0---2-------------2h3h5--|
|--3-----3-------------------3----------------|
|---------------------------------------------|
|---------------------------------------------|

|-----------------------------------------------|
|-----------------------------------------------|
|------------5-5-3-2-0---2-----0---2------2h3h5-|
|--3-----3-------------------3-------3----------|
|-----------------------------------------------|
|-----------------------------------------------|


Pre-Chorus Gt.2
|-------------------------------------------|
|-------------------------------------------|
|-----------5~-----3~---------5~------------|
|--0~-------5~-----3~---------5~-----2/3h5--|
|--0~-------3~-----1~---------3~------------|
|--0~---------------------------------------|
PM                    

Fill

Chorus (x2)

After Chorus, ring this out
|---| 
|---| 
|---| 
|-0-| 
|-0-| 
|-0-|


Interlude 

Gt.1     2x
|--------------------------------------------|
|--------------------------------------------|
|--3------3-5--------5-----------------------|
|--3------3-5--------5-0--------0-3--------3-|
|--1------1-3--------3-0--------0-3--------3-|
|----------------------0--------0-3--------3-|
Pm        .          .          .          .

Gt.2  (all 2x)
|--------------|   |--------------|
|--------------|   |--------------|
|--------7-----|   |--------9-----|
|----7-------7-|   |----7-------7-|
|--5---5-------|   |--5---5-------|
|--------------|x3 |--------------|x1

Bridge
Gt 1  
|-----------|-----------------------------|   |------------------|
|-----------|-----------------------------|   |------------------|
|--33333333-|-55555555--------------------|   |-5555-------------|
|--33333333-|-55555555-00000000-33333333--|   |-5555-------------|
|--11111111-|-33333333-00000000-33333333--|   |-3333-00-00-00-00-|
|-----------|----------00000000-33333333--|   |------00-00-00-00-|
Pm.                                                  .. .. .. ..


Gt 2 Distortion  (all 2x)
|--------------|   |--------------|
|--------------|   |--------------|
|--------7-----|   |--------9-----|
|----7-------7-|   |----7-------7-|
|--5---5-------|   |--5---5-------|
|--------------|x3 |--------------|x1


Verse

Pre-Chorus

Chorus (x2)

Intro/outro Gt.1                              4x
|--------------------------------------------------------------|
|--------------------------------------------------------------|
|--------------------------------------------------------------|
|----7p0-5p0-7p0----7p0-5p0-7p0----7p0-5p0-7p0-8p0-7p0-5h7-5h7-|
|-00-------------00-------------00-----------------------------|
|-00-------------00-------------00-----------------------------|
Pm..             ..             ..

|-----|
|-----|
|-----|
|-0-0-|
|-0-0-|
|-0-0-|
Pm  .





Comments


Popular Aiden tabs & chords
Die Romantic 1 Bass Tabs
Last Sunrise 2 Bass Tabs
Opening Departure Chords
Horror Queen Tabs
Hysteria 1 Tabs
Its Cold Tonight Intro Tabs
Kid Becomes The Dream Tabs
Silent Eyes 1 Tabs
Silent Eyes Ukulele
The Sky Is Falling Ukulele


Song lyrics



↑ Back to top | Tablatures and chords are parodies/interpretations of the original songs. You may use it for private study, scholarship, research or language learning purposes only
© 2014 AZChords.com Contact us | Privacy policy | DMCA | Add/correct tabs | Request tabs | Top 50 tabs