» » »

Looking Glass Eyes Tabs (ver.2)

Artists:  A B C D E F G H I J K L M N O P Q R S T U V W X Y Z # 

Looking Glass Eyes Tabs (ver.2)

Aiden
Rating:
0/5 (0 votes)

Hard to play? Try these video lessons and learn fast.
                Aiden
Looking Glass Eyes

            x4  fast
e|-------------------------------------------------------------------------|
B|-------------------------------------------------------------------------|
G|-------------------------------------------------------------------------|
D|---5-----8---------------------------------------------------------------|
A|---3--6--6--8--6--5--3--3-x8---------------------------------------------|
E|------4-----6--4--3--1--1------------------------------------------------|
                          
          
            x2 
e|-------------------------------------------------------------------------|
B|-------------------------------------------------------------------------|
G|-------------------------------------------------------------------------|
D|---------6-x16----------8-x16--------------------------------------------|
A|--3-x16--4-------3-x16--6------------------------------------------------|
E|--1--------------1-------------------------------------------------------|
    
        x4  Fast
e|-------------------------------------------------------------------------|
B|-------------------------------------------------------------------------|
G|-------------------------------------------------------------------------|
D|------------------------------6-x8--8-x8---------------------------------|
A|--3-3--3--3-x6--3-3--3--3-x6--4-----6------------------------------------|
E|--1-1--1--1-----1-1--1--1------------------------------------------------|


sorry I havn't finished it, But I will try to soon.
            
Hard to play? Try these video lessons and learn fast. | Correct




comments powered by Disqus
↑ Back to top | Tablatures and chords are parodies/interpretations of the original songs. You may use it for private study, scholarship, research or language learning purposes only