>
 >
Looking Glass Eyes

Looking Glass Eyes Guitar Tabs

Aiden - Looking Glass Eyes chords, tabs, tablatures, lyrics

Guitar lessons | Add/correct | Request | Top 50 tabs Artists:  A B C D E F G H I J K L M N O P Q R S T U V W X Y Z 0-9

Looking Glass Eyes Guitar Tabs – Aiden

CD, Sheet music, Poster

Do you like Looking Glass Eyes? Share with your friends now
TabsTabs v2
Hey.....this is my first tab and maybe it's not perfect, but I hope it will help a bit!!

Aiden-Looking glass eyes

. = Palm mute

~ = let ring

/ =slide up

Intro:

e|----------------------------|
B|----------------------------|
G|--5---8---------------------| X 3 times.....then
D|--5-6-8-8-6-5-3-333333333---|
A|--3-6-6-8-6-5-3-333333333---|
E|----4---6-4-3-1-111111111---|
PM                .........

e|-----------------------|
B|-----------------------|
G|--5---8----------------|
D|--5-6-8-8-6-5-3--3--3--|
A|--3-6-6-8-6-5-3--3--3--|
E|----4---6-4-3-1--1--1--|

Verse 1:

e|-------------------------------------------------------------------|
B|-------------------------------------------------------------------|
G|-------------------------------------------------------------------|
D|-----------------6666666666666666----------------8888888888888888--|
A|-3333333333333333444444444444444466666666666666666666666666666666--|
E|-1111111111111111----------------4444444444444444------------------|
PM ............................    ................................

e|-------------------------------------------------------------------|
B|-------------------------------------------------------------------|
G|----------------------------------------------------------------8~-|
D|-----------------6666666666666666----------------8888888888888888~-|
A|-3333333333333333444444444444444466666666666666666666666666666666~-|
E|-1111111111111111----------------4444444444444444------------------|
PM ...............................................................

Chorus:

e|-------------------------------|
B|-------------------------------|
G|----------------666666/888888--| X 4 times
D|-3-33-3333-3-33-666666/888888--|
A|-3-33-3333-3-33-444444/666666--|
E|-1-11-1111-1-11----------------|

e|-------------------|
B|-------------------|
G|-------------------|
D|----3~----------3~-|
A|-33-3~-33-33-33-3~-|
E|-11-1~-11-11-11-1~-|
PM ..    .. .. ..

Verse 2:

e|-------------------------------------------------------------|
B|-------------------------------------------------------------|
G|-------------------------------------------------------------|
D|----6----6----6----6----3----3----3----3----6----6----6----6-|
A|-44---44---44---44---44---44---44---44---44---44---44---44---|
E|-------------------------------------------------------------|
PM ..   ..   ..   ..   ..   ..   ..   ..   ..   ..   ..   ..

e|-------------------|
B|-------------------|
G|-------------------|
D|----5----5-555/6-8-|
A|-66---66---666-6-6-|
E|-------------------|
PM ..   ..

Chorus:

e|-------------------------------|
B|-------------------------------|
G|----------------666666/888888--| X 4 times
D|-3-33-3333-3-33-666666/888888--|
A|-3-33-3333-3-33-444444/666666--|
E|-1-11-1111-1-11----------------|

Bridge:

e|----------------|
B|----------------|
G|-555555/6-66/8--|
D|-555555/6-66/8--|
A|-333333/4-44/6--|
E|----------------|

e|-----------------------------------------|
B|-----------------------------------------|
G|----0-6-60----0-8-80----0-6-60----0------|  X 2 times
D|-3-30-6-60-6-60-8-80-3-30-6-60-6-60------|
A|-3-30-4-40-6-60-6-60-3-30-4-40-6-60-000--|
E|-1-10----0-4-40----0-1-10----0-4-40-000--|

then play the Chorus again:

e|-------------------------------|
B|-------------------------------|
G|----------------666666/888888--| X 2 times
D|-3-33-3333-3-33-666666/888888--|
A|-3-33-3333-3-33-444444/666666--|
E|-1-11-1111-1-11----------------|

then the end verse:

e|-------------------------------------------------------------------|
B|-------------------------------------------------------------------|
G|-------------------------------------------------------------------| X 2 
D|-----------------6666666666666666----------------------------------|
A|-333333333333333344444444444444446666666666666666000000000000000---|
E|-1111111111111111----------------4444444444444444000000000000000---|
PM ...............................................................

e|-------------------------------------------------------------------|
B|-------------------------------------------------------------------|
G|-----------------6666666666666666----------------------------------|
D|-3333333333333333666666666666666666666666666666660222222222222222--|
A|-3333333333333333444444444444444466666666666666662222222222222222--|
E|-1111111111111111----------------44444444444444440000000000000000--|

Outro:

e|-----|
B|-----|
G|-----|
D|-3~~-|
A|-3~~-|
E|-1~~-|

so that's it........enjoy playing!!





Comments


Popular Aiden tabs & chords
Fifteen 2 Bass Tabs
We Sleep Forever Bass Tabs
Die Romantic 2 Tabs
Horror Queen Intro Tabs
Hysteria Tabs
Hysteria 2 Tabs
Last Sunrise 3 Tabs
Life I Left Behind 1 Tabs
We Sleep Forever 4 Tabs
We Sleep Forever Intro Tabs


Song lyrics



↑ Back to top | Tablatures and chords are parodies/interpretations of the original songs. You may use it for private study, scholarship, research or language learning purposes only
© 2014 AZChords.com Contact us | Privacy policy | DMCA | Add/correct tabs | Request tabs | Top 50 tabs