» » »

Aiden, Last Sunrise Tabs (ver.4)

Artists:  A B C D E F G H I J K L M N O P Q R S T U V W X Y Z # 

Last Sunrise Tabs (ver.4)

Aiden Tabs
Rating:
0/5 (0 votes)
Last Sunrise lessons Tabs too difficult? Try these video lessons and learn fast
                Aiden
"The Last Sunrise"
Nightmare Anatomy

The last tab i submitted for this song sucked so i re tabed the song. let me know how i did.


Tunning: Drop Db (Db, Ab, Db, Gb, A, e)

h=hammer on
p=pull off
< >= (pinch) harmonic

Intro
Guitar 1
|------------------------|   |------------------------------------------|
|------------------------|   |------------------------------------------|
|------------------------|   |------------------------------------------|
|------<7>p0-<5>p0-<7>p0-|   |----<7>p0-<5>p0---<8>p0---<7>p0-<5>h7-|
|--00--------------------|   |--00--------------------------------------|
|--00--------------------|x2 |--00--------------------------------------|
PM ..                     PM    ..

Guitar 2
|-------------------|   |--------------------------------|
|-------------------|   |--------------------------------|
|-------------------|   |--------------------------------|
|-----3p0-h3p0-h3p0-|   |-----3p0-h3p0-0--5p0-0--2h3p3p0-|
|--00---------------|   |--00----------------------------|
|--00---------------|x2 |--00----------------------------|
PM ..                   PM ..

Verse x2
Guitar 1
|---------------------------------------------------------------------|
|---------------------------------------------------------------------|
|-------------------------------------3-33--------33--35-55--------55-|
|-------------------------------------3-33--------33--35-55--------55-|
|--00-00--------00--00-00--------00--01-11--------11--13-33--------33-|
|--00-00--------00--00-00--------00--0--------------------------------|

Guitar 2
|-----|
|--9--|
|--x--|
|--7--|
|-----|
|-----|

Chorus
Guitar
|----------------------------------------------------------------------|
|----------------------------------------------------------------------|
|------------------------------------3333333333333333-3333333333333333-|
|--3333333333333333-0000000000000000-3333333333333333-3333333333333333-|
|--3333333333333333-0000000000000000-1111111111111111-3333333333333333-|
|--3333333333333333-0000000000000000-----------------------------------|

Guitar 2
|-----------------------------------|   |---------------------------|
|--9-9-9-9-9-9-9-9-7-7-7-7-5-5-5-5--|   |--4-4-4-4-5-5-5-5-7-7-7-7--|
|--x-x-x-x-x-x-x-x-x-x-x-x-x-x-x-x--|   |--x-x-x-x-x-x-x-x-x-x-x-x--|
|--7-7-7-7-7-7-7-7-5-5-5-5-3-3-3-3--|   |--2-2-2-2-3-3-3-3-5-5-5-5--|
|-----------------------------------|   |---------------------------|
|-----------------------------------|x3 |---------------------------|

Verse x2
Guitar 1
|---------------------------------------------------------------------|
|---------------------------------------------------------------------|
|-------------------------------------3-33--------33--35-55--------55-|
|-------------------------------------3-33--------33--35-55--------55-|
|--00-00--------00--00-00--------00--01-11--------11--13-33--------33-|
|--00-00--------00--00-00--------00--0--------------------------------|

Guitar 2
|-----|
|--9--|
|--x--|
|--7--|
|-----|
|-----|

Pre-Chorus
Guitar 1
|---------------------------------------------|
|---------------------------------------------|
|------------5---3-2-0---2-------------2h3h5--|
|--3-----3-------------------3----------------|
|---------------------------------------------|
|---------------------------------------------|

|---------------------------------------------|
|---------------------------------------------|
|------------5-5-3-2-0---2-----0---2---2h3h5--|
|--3-----3-------------------3-------3--------|
|---------------------------------------------|
|---------------------------------------------|

Guitar2  
|---------------------------------------------|
|---------------------------------------------|
|------------5---5-5-3-----3-3---5------------|
|--0-----0-0-5---5-5-3-----3-3---5-----2h3h5--|
|--0-----0-0-3---3-3-1-----1-1---3------------|
|--0-----0-0----------------------------------|
PM       . .     .         . .    


Chorus (x2)
Guitar
|----------------------------------------------------------------------|
|----------------------------------------------------------------------|
|------------------------------------3333333333333333-3333333333333333-|
|--3333333333333333-0000000000000000-3333333333333333-3333333333333333-|
|--3333333333333333-0000000000000000-1111111111111111-3333333333333333-|
|--3333333333333333-0000000000000000-----------------------------------|

Guitar 2
|-----------------------------------|   |---------------------------|
|--9-9-9-9-9-9-9-9-7-7-7-7-5-5-5-5--|   |--4-4-4-4-5-5-5-5-7-7-7-7--|
|--x-x-x-x-x-x-x-x-x-x-x-x-x-x-x-x--|   |--x-x-x-x-x-x-x-x-x-x-x-x--|
|--7-7-7-7-7-7-7-7-5-5-5-5-3-3-3-3--|   |--2-2-2-2-3-3-3-3-5-5-5-5--|
|-----------------------------------|   |---------------------------|
|-----------------------------------|x3 |---------------------------|


Interlude 1 Note: played with light distortion

Guitar 1
|--------------|   |--------------|
|--------------|   |--------------|
|--------7-----|   |--------9-----|
|----7-------7-|   |----7-------7-|
|--5---5-------|   |--5---5-------|
|--------------|x3 |--------------|x1

Guitar 2
|--------------------------------------------|
|--------------------------------------------|
|--3------3-5--------6-----------------------|
|--3------3-5--------3-0--------0-3--------3-|
|--1------1-3--------3-0--------0-3--------3-|
|----------------------0--------0-3--------3-|

Interlude 2
Guitar 1
|--------------|   |--------------|
|--------------|   |--------------|
|--------7-----|   |--------9-----|
|----7-------7-|   |----7-------7-|
|--5---5-------|   |--5---5-------|
|--------------|x3 |--------------|x1

Guitar 2
|---------------------------------------|
|---------------------------------------|
|--55555555-77777777--------------------|
|--55555555-77777777-00000000-33333333--|
|--11111111-33333333-00000000-33333333--|
|--------------------00000000-33333333--|

Verse x2
Guitar 1
|---------------------------------------------------------------------|
|---------------------------------------------------------------------|
|-------------------------------------3-33--------33--35-55--------55-|
|-------------------------------------3-33--------33--35-55--------55-|
|--00-00--------00--00-00--------00--01-11--------11--13-33--------33-|
|--00-00--------00--00-00--------00--0--------------------------------|

Guitar 2
|-----|
|--9--|
|--x--|
|--7--|
|-----|
|-----|

Pre-Chorus
Guitar 1
|---------------------------------------------|
|---------------------------------------------|
|------------5---3-2-0---2-------------2h3h5--|
|--3-----3-------------------3----------------|
|---------------------------------------------|
|---------------------------------------------|

|---------------------------------------------|
|---------------------------------------------|
|------------5-5-3-2-0---2-----0---2---2h3h5--|
|--3-----3-------------------3-------3--------|
|---------------------------------------------|
|---------------------------------------------|

Guitar2  
|---------------------------------------------|
|---------------------------------------------|
|------------5---5-5-3-----3-3---5------------|
|--0-----0-0-5---5-5-3-----3-3---5-----2h3h5--|
|--0-----0-0-3---3-3-1-----1-1---3------------|
|--0-----0-0----------------------------------|
PM       . .     .         . .    


Chorus (x2)
Guitar
|----------------------------------------------------------------------|
|----------------------------------------------------------------------|
|------------------------------------3333333333333333-3333333333333333-|
|--3333333333333333-0000000000000000-3333333333333333-3333333333333333-|
|--3333333333333333-0000000000000000-1111111111111111-3333333333333333-|
|--3333333333333333-0000000000000000-----------------------------------|

Guitar 2
|-----------------------------------|   |---------------------------|
|--9-9-9-9-9-9-9-9-7-7-7-7-5-5-5-5--|   |--4-4-4-4-5-5-5-5-7-7-7-7--|
|--x-x-x-x-x-x-x-x-x-x-x-x-x-x-x-x--|   |--x-x-x-x-x-x-x-x-x-x-x-x--|
|--7-7-7-7-7-7-7-7-5-5-5-5-3-3-3-3--|   |--2-2-2-2-3-3-3-3-5-5-5-5--|
|-----------------------------------|   |---------------------------|
|-----------------------------------|x3 |---------------------------|

Outro
Guitar 1
|------------------------|   |------------------------------------------|
|------------------------|   |------------------------------------------|
|------------------------|   |------------------------------------------|
|------<7>p0-<5>p0-<7>p0-|   |----<7>p0-<5>p0-<7>p0-<8>p0---<7>p0-<5>h7-|
|--00--------------------|   |--00--------------------------------------|
|--00--------------------|x2 |--00--------------------------------------|
PM ..                     PM    ..

Guitar 2
|-------------------|   |--------------------------------|
|-------------------|   |--------------------------------|
|-------------------|   |--------------------------------|
|-----3p0-h3p0-h3p0-|   |-----3p0-h3p0-0--5p0-0--2h3p3p0-|
|--00---------------|   |--00----------------------------|
|--00---------------|x2 |--00----------------------------|
PM ..                   PM ..

Guitar 1&2
|------|
|------|
|------|
|--00--|
|--00--|
|--00--|
PM ..
            
Submit corrections

comments powered by Disqus
↑ Back to top | Aiden Tabs for Last Sunrise. Lyrics for acoustic guitar and electric guitar. Tablatures and chords are parodies/interpretations of the original songs. You may use it for private study, scholarship, research or language learning purposes only