>
 >
Knife Blood Nightmare

Knife Blood Nightmare Guitar Tabs

Aiden - Knife Blood Nightmare chords, tabs, tablatures, lyrics

Guitar lessons | Add/correct | Request | Top 50 tabs Artists:  A B C D E F G H I J K L M N O P Q R S T U V W X Y Z 0-9

Knife Blood Nightmare Guitar Tabs – Aiden

CD, Sheet music, Poster

Do you like Knife Blood Nightmare? Share with your friends now
Bass TabsBass Tabs v2TabsTabs v2Tabs v3Tabs v4
Tuning:Drop D
Guitar 1:Angel
Guitar2:Jake

Guitar 2 intro she said"live yong and leave a wake of beauty"...
e|------------------------------------|
B|------------------------------------|
G|------------------------------------|
D|--4~-----0~-----4~-----2~-----------|  X2
A|--4~-----0~-----4~-----2~-----------|
D|--4~-----0~-----4~-----2------------|

Guitr 1 intro ( kind of hard to hear)
e|---------------------------------------------------------|
B|---------------------------------------------------------|
G|--5~---5555-6~---6666-5~---5555-6~---6666-5~-5h6p5-------|
D|--6~---6666-6~---6666-6~---6666-6~---6666-6~------6------| X2
A|---------------------------------------------------------|
D|---------------------------------------------------------|
         XXXX      XXXX      XXXX      XXXX
Guitar 2 verse 1:( stab wounds to the neck and chest again...)
e|--------------------------------------------------------------------------|
B|--------------------------------------------------------------------------|
G|--------------------------------------------------------------------------|
D|---0000-------2222-----------4-44444--76-6h7p6-----4-44444--76-6h7p6------|
A|---0000-------2222pickslide--4-44444-----------7---4-44444------------7---|
D----0000-------2222-----------4-44444---------------4-44444----------------|
                                 XXXXX                 XXXXX
Guitar 1 verse 1
e|------------------------------------------------------------------|
B|----------------------------*****----------*****------------------| *=pinch
G|----------------------------56565-5h6p5----56565-5h6p5------------|harmonics
D|---0000-----------2222-----------------6---------------6----------|
A|---0000pickslide--2222--------------------------------------------|
D|---0000-----------2222--------------------------------------------|

Guitar 2 (face first in a tale of awkward love...)
e|--------------------------------------------------------------------------|
B|--------------------------------------------------------------------------|
G|--------------------------------------------------------------------------|
D|--0000----------2222------------4-44444--76-6h7p6----4-44444--76-6h7p6----|
A|--0000pickslide-2222pickslide---4-44444-----------7--4-44444-----------7--|
D---0000----------2222------------4-44444--------------4-44444--------------|
                                    XXXXX
Guitar 1
e|--------------------------|
B|--*****-------------------|
G|--56565-5h6p5-------------|
D|--------------6-----------| x4
A|--------------------------|
D|--------------------------|

Guitar 2(gone with the stiching in her heart left out)
e|------------------------------------------|
B|------------------------------------------|
G|------------------------------------------|
D|-0~----2~----4~----6~----0~---2~---2------|
A|-0~----2~----4~----6~----0~---2~---2------|
E|-0~----2~----4~----6~----0~---2~---2------|

Guitar 1
e|---------------------------------------------------|
B|---------------------------------------------------|
G|-------------1-3-5-8-6-5-6-5---8--6--5h6--5--6-----|
D|-0~----2~-------------------6----------------------|
A|-0~----2~------------------------------------------|
D|-0~----2~------------------------------------------|

Guitar 2:verse 2 (In my dreams we die with the blood and this knife...)
e|---------------------------------|
B|---------------------------------|
G|---------------------------------|
D|---44---44---44------------------| repeat as many times needed
A|---44---44---44------------------|
D|---44---44---44------------------|
     XX    XX   XX

Guitar 1:verse 2
e|--------------------------------------------------|
B|--------------------------------------------------|
G|----**-**-------**-**-------**-**------**-**------|
D|----56-56-5h6---56-56-5h6---56-56-5h6--56-56-8-6--|
A|--------------------------------------------------|
D|--------------------------------------------------|

Both Guitars( i know its all just a bad dream now...)
e|--------------------------------------------|
B|--------------------------------------------|
G|--------------------------------------------|
D|--0~---2~---44444444--55555555--------------|
A---0~---2~---44444444--55555555--------------|
D|--0~---2~---44444444--55555555--------------|
               XXXXXXX

Guitar 1 chorus ( so now midnights here...)
e|---------------------------------------------------------------------|
B|---------------------------------------------------------------------|
G|---------------------------------------------------------------------|
D|--44444444---22222222---00000000---22222222---44444444---66666666----|X2
A|--44444444---22222222---00000000---22222222---44444444---66666666----|
D|--44444444---22222222---00000000---22222222---44444444---66666666----|

Guitar 2 chorus
e|---------------------------------------------------------------------|
B|---------------------------------------------------------------------|
G|-666666-8-9-999999--666666-8-9-444444--666666-8-9-1313131313131313---|
D|-XXXXXX-X-X-XXXXXX--XXXXXX-X-X-XXXXXX--666666-X-X-XXXXXXXXXXXXXXXX---| X2
A|-444444-6-7-777777--444444-6-7-222222--444444-6-7-1111111111111111---|
D|---------------------------------------------------------------------|

repeat verse 2

Guiar 2( I know it's all just a bad dream now...)

e|--------------------------------------------------------|
B|--------------------------------------------------------|
G|--1---3---5---6-X4----6-5-3-5-5p3-----------------------|
D|----------------------------------6---------------------|
A|--------------------------------------------------------|
D---------------------------------------------------------|
Guitar 1
e|------------------------------------------------------|
B|------------------------------------------------------|
G|-1---8---5---6-X4-----8-6-5-6-6p5---------------------|
D|----------------------------------6-------------------|
A|------------------------------------------------------|
D-------------------------------------------------------|

repeat verse 1
repeat intro
repeat chorus

and thats it


| /  slide up
| \  slide down
| h  hammer-on
| p  pull-off
| ~  vibrato
| +  harmonic
| x  Mute note





Comments


Popular Aiden tabs & chords
Last Sunrise 2 Bass Tabs
Moment Bass Tabs
Cry Little Sister Chords
Goodbye We're Falling Fast Tabs
Knife Blood Nightmare 2 Tabs
Last Sunrise 2 Tabs
Moment 1 Tabs
The Opening Departure Tabs
We Sleep Forever 2 Tabs
Opening Departure Ukulele


Song lyrics



↑ Back to top | Tablatures and chords are parodies/interpretations of the original songs. You may use it for private study, scholarship, research or language learning purposes only
© 2014 AZChords.com Contact us | Privacy policy | DMCA | Add/correct tabs | Request tabs | Top 50 tabs