>
 >
Knife Blood Nightmare 2

Knife Blood Nightmare 2 Guitar Tabs

Aiden - Knife Blood Nightmare 2 chords, tabs, tablatures, lyrics

Guitar lessons | Add/correct | Request | Top 50 tabs Artists:  A B C D E F G H I J K L M N O P Q R S T U V W X Y Z 0-9

Knife Blood Nightmare 2 Guitar Tabs – Aiden

CD, Sheet music, Poster

Do you like Knife Blood Nightmare 2? Share with your friends now
Bass TabsBass Tabs v2TabsTabs v2Tabs v3Tabs v4
         Aiden
"Knife Blood Nightmare"
   Nightmare Anatomy

        6/16/06

Tuning:      Drop D - 1/2 
Low To High: Db Ab Db Gb Bb eb

Guitar 1: Angel (Top)
Guitar 2: Jake  (Bottom)

x = pm
h = hammer on
b = bend


Intro "She!..."
eb|------------------------------|------------------------------------------|
bb|------------------------------|------------------------------------------|
gb|------------------------------|--------------------------------------6h7-|
db|-7--7-7-7-7-7-7--7-7-7-7-7-7--|-7--7-7-7---------------------------------|
ab|-4------------0---------------|-4---------2--2-2-2-2-2--2--2-2-2-2-------|
Db|-4------------0---------------|-4---------2--2-2-2-2-2--2--2-2-2-2-2-----|
       x x x x x    x x x x x x       x x x     x x x x x     x x x x x     |
                                                                            |x2
eb|------------------------------|------------------------------------------|
bb|------------------------------|------------------------------------------|
gb|------------------------------|------------------------------------------|
db|-4------------0---------------|-4----------------------------------------|
ab|-4------------0---------------|-4----------2---------2-------2------2----|
Db|-4------------0---------------|-4----------2---------2-------2------2----|

"Lying Dead..."
eb|-------------------------------------|
bb|-------------------------------------|
gb|-------------------------------------|
db|-0-0---------------2-2---------------|
ab|-0-0--(pick slide)-2-2---------------|
Db|-0-0---------------2-2---------------|
                                        |
eb|-------------------------------------|
bb|-------------------------------------|
gb|-------------------------------------|
db|-0-0---------------2-2---------------|
ab|-0-0---------------2-2--(pick slide)-|
Db|-0-0---------------2-2---------------|


"They Found You Covered..."
eb|---|---------------------|------------------------|
bb|---|---------------------|------------------------|
gb|---|--6-7-6-7-6-4-2-2----|-6-7-6-7-6-4-2-2--------|
db|-7b|---------------------|------------------------|
ab|---|---------------------|------------------------|
Db|---|---------------------|------------------------|
                                                     |
eb|---|----------------------|-----------------------|
bb|---|----------------------|-----------------------|
gb|---|-------------1-1-1----|----------------1-1-1--|
db|-4-|-------------------2--|-4--------------------2|
ab|-4-|-4-4-4-4-4-4----------|-4--4-4-4-4-4-4--------|
Db|-4-|-4-4-4-4-4-4----------|-4--4-4-4-4-4-4--------|
        x x x x x x               x x x x x x

eb|---------------------|------------------------|
bb|---------------------|------------------------|
gb|--6-7-6-7-6-4-2-2----|-6-7-6-7-6-4-2-2--------|
db|---------------------|------------------------|
ab|---------------------|------------------------|
Db|---------------------|------------------------|
                                                 |
eb|---------------------|------------------------|
bb|---------------------|------------------------|
gb|---------------------|------------------------|
db|-0-0-----------------|-2-2--------------------|
ab|-0-0-(pick slide)----|-2-2-(pickslide)--------|
Db|-0-0-----------------|-2-2--------------------|



eb|---|---------------------|------------------------|
bb|---|---------------------|------------------------|
gb|---|--6-7-6-7-6-4-2-2----|-6-7-6-7-6-4-2-2--------|
db|-7b|---------------------|------------------------|
ab|---|---------------------|------------------------|
Db|---|---------------------|------------------------|
                                                     |
eb|---|----------------------|-----------------------|
bb|---|----------------------|-----------------------|
gb|---|-------------1-1-1----|----------------1-1-1--|
db|-4-|-------------------2--|-4--------------------2|
ab|-4-|-4-4-4-4-4-4----------|-4--4-4-4-4-4-4--------|
Db|-4-|-4-4-4-4-4-4----------|-4--4-4-4-4-4-4--------|
        x x x x x x               x x x x x x


"Gone With The Stiching..."
eb|---------------------------------------------|
bb|---------------------------------------------|
gb|---------------10-8-7-8-7------10-8-7-8-7--5-|
db|-0--2---7-8-10-----------8-7-8---------------|
ab|-0--2----------------------------------------|
Db|-0--2----------------------------------------|
                                                |
eb|---------------------------------------------|
bb|---------------------------------------------|
gb|---------------------------------------------|
db|-0--2---4--4--4--4--4--4--7--7--7--7---0---2-|
ab|-0--2---4--4--4--4--4--4--7--7--7--7---0---2-|
Db|-0--2---4--4--4--4--4--4--7--7--7--7---0---2-|


"My Dreams We Die.."
eb|-----------------------------------------------| 
bb|-----------------------------------------------| 
gb|-----------------------------------------------|
db|-----6-7-----6-7----6-7----6-7-----6-7-----6-7-|
ab|-4-4-----4-4-----4-4----4-4-----4-4-----4-4----|
Db|-----------------------------------------------|
    x x     x x     x x    x x     x x     x x    | 
                                                  |                                          
eb|-----------------------------------------------|
bb|-----------------------------------------------|
gb|-----------------------------------------------|
db|-----------------------------------------------|
ab|-0-0-----0-0----0-0----0-0------0-0-----0-0----|
Db|-0-0-----0-0----0-0----0-0------0-0-----0-0----| 
    x x     x x    x x    x x      x x     x x
eb|------------------------------------------|
bb|------------------------------------------|
gb|------------------------------------------|
db|----6-7-----6-7-----6-7-----6-7----6-7-9-7|
ab|-4-4-----4-4-----4-4-----4-4----4-4-------|
Db|------------------------------------------|
    x x     x x     x x     x x    x x       |
eb|------------------------------------------|
bb|------------------------------------------|
gb|------------------------------------------|
db|------------------------------------------|
ab|--4-4-----4-4-----4-4------4-4----4-4-----|
Db|--4-4-----4-4-----4-4------4-4----4-4-----|
     x x     x x     x x      x x    x x

Pre Chorus ( Both Guitars)
"I Know It's All Just a Bad Dream Now."
eb|--------------------------------------------|
bb|--------------------------------------------|
gb|--------------------------------------------|
db|-0--2---------------------------------------|
ab|-0--2--4--4-4-4-4-4-4-4-4-4-4-4-4-5-5-5-5-5-|
Db|-0--2--4--4-4-4-4-4-4-4-4-4-4-4-4-5-5-5-5-5-|
             x x x x x x x x x x x x
Chorus
"Midnights Here.."
eb|--------------------------------------------------------------|
bb|--------------------------------------------------------------|
gb|--------------------------------------------------------------|
db|-9-9-9-9-9-9-9-9-9-9-9-7-7-7-7-7-7-7-7-7-7-7-7-5-5-5-5-5-5-5-5|
ab|-9-9-9-9-9-9-9-9-9-9-9-7-7-7-7-7-7-7-7-7-7-7-7-5-5-5-5-5-5-5-5|
Db|-9-9-9-9-9-9-9-9-9-9-9-7-7-7-7-7-7-7-7-7-7-7-7-5-5-5-5-5-5-5-5|
                                                                 |
eb|--------------------------------------------------------------|
bb|--------------------------------------------------------------|
gb|-11111111111111111112--12119-9-9-9-9-9-9-9-9-11117-7-7-7-7-7-7|
db|-x-x-x-x-x-x-x-x-x-x---x-x-x-x-x-x-x-x-x-x-x-x-x-x-x-x-x-x-x-x|
ab|-9-9-9-9-9-9-9-9-9-10-10-9-7-7-7-7-7-7-7-7-7-9-9-5-5-5-5-5-5-5|
Db|--------------------------------------------------------------|

                                     |1.---------||2.---------------------|
eb|----------------------------------------------|------------------------|
bb|----------------------------------------------|------------------------|
gb|----------------------------------------------|------------------------|
db|-7-7-7-7-7--7-7-7-7-7-7-5-5-5-5-5--7-7-7-7-7-7|-----7-----7-----7-----7|
ab|-5-5-5-5-5--4-4-4-4-4-4-5-5-5-5-5--7-7-7-7-7-7|-7-7---7-7---7-7---7-7--|
Db|------------------------5-5-5-5-5--7-7-7-7-7-7|-7-7---7-7---7-7---7-7--|
                                                 | x x   x x   x x   x x                       
eb|----------------------------------------------|------------------------|
bb|----------------------------------------------|------------------------|
gb|-9-9-7-6-6-6-6-6-6-7-7-7-7-7-7-7-7-14-14-14-14|------------------------|
db|-x-x-x-x-x-x-x-x-x-x-x-x-x-x-x-x-x-x--x--x--x-|-----7-----7-----7-----7|
ab|-7-7-5-4-4-4-4-4-4-5-5-5-5-5-5-5-5-12-12-12-12|-7-7---7-7---7-7---7-7--|
Db|----------------------------------------------|-7-7---7-7---7-7---7-7--|
                                                   x x   x x   x x   x x


"My Dreams We Die.."
eb|-----------------------------------------------| 
bb|-----------------------------------------------| 
gb|-----------------------------------------------|
db|-----6-7-----6-7----6-7----6-7-----6-7-----6-7-|
ab|-4-4-----4-4-----4-4----4-4-----4-4-----4-4----|
Db|-----------------------------------------------|
    x x     x x     x x    x x     x x     x x    | 
                                                  |                                          
eb|-----------------------------------------------|
bb|-----------------------------------------------|
gb|-----------------------------------------------|
db|-----------------------------------------------|
ab|-0-0-----0-0----0-0----0-0------0-0-----0-0----|
Db|-0-0-----0-0----0-0----0-0------0-0-----0-0----| 
    x x     x x    x x    x x      x x     x x

eb|------------------------------------------|
bb|------------------------------------------|
gb|------------------------------------------|
db|----6-7-----6-7-----6-7-----6-7----6-7-9-7|
ab|-4-4-----4-4-----4-4-----4-4----4-4-------|
Db|------------------------------------------|
                                             |
eb|------------------------------------------|
bb|------------------------------------------|
gb|------------------------------------------|
db|------------------------------------------|
ab|--4-4-----4-4-----4-4------4-4----4-4-----|
Db|--4-4-----4-4-----4-4------4-4----4-4-----|
     x x     x x     x x       


"I Know Its all Just a Bad Dream."
eb|------------------|  |---------------|
bb|------------------|  |---------------|
gb|---9-6-7----9-7-6-|  |---9-7-6--4-6--|
db|-7--------7-------|2x|-7-------------|
ab|------------------|  |---------------|
Db|------------------|  |---------------|
                        |               |
eb|------------------|  |---------------|
bb|------------------|  |---------------|
gb|------------------|  |---------------|
db|-7-9-11-12-4-6-7-9|2x|-12-11-9-7-6-7-|
ab|------------------|  |---------------|
Db|------------------|  |---------------|

"This is The Last Time.."
eb|-------------------------------------|
bb|-------------------------------------|
gb|-------------------------------------|
db|-0-0---------------2-2---------------|
ab|-0-0--(pick slide)-2-2---------------|
Db|-0-0---------------2-2---------------|
                                        |
eb|-------------------------------------|
bb|-------------------------------------|
gb|-------------------------------------|
db|-0-0---------------2-2---------------|
ab|-0-0---------------2-2--(pick slide)-|
Db|-0-0---------------2-2---------------|

eb|---|---------------------|------------------------|
bb|---|---------------------|------------------------|
gb|---|--6-7-6-7-6-4-2-2----|-6-7-6-7-6-4-2-2--------|
db|-7b|---------------------|------------------------|
ab|---|---------------------|------------------------|
Db|---|---------------------|------------------------|
                                                     |
eb|---|----------------------|-----------------------|
bb|---|----------------------|-----------------------|
gb|---|-------------1-1-1----|----------------1-1-1--|
db|-4-|-------------------2--|-4--------------------2|
ab|-4-|-4-4-4-4-4-4----------|-4--4-4-4-4-4-4--------|
Db|-4-|-4-4-4-4-4-4----------|-4--4-4-4-4-4-4--------|
        x x x x x x               x x x x x x

eb|---------------------|------------------------|
bb|---------------------|------------------------|
gb|--6-7-6-7-6-4-2-2----|-6-7-6-7-6-4-2-2--------|
db|---------------------|------------------------|
ab|---------------------|------------------------|
Db|---------------------|------------------------|
                                                 |
eb|---------------------|------------------------|
bb|---------------------|------------------------|
gb|---------------------|------------------------|
db|-0-0-----------------|-2-2--------------------|
ab|-0-0-(pick slide)----|-2-2-(pickslide)--------|
Db|-0-0-----------------|-2-2--------------------|



eb|---|---------------------|------------------------|
bb|---|---------------------|------------------------|
gb|---|--6-7-6-7-6-4-2-2----|-6-7-6-7-6-4-2-2--------|
db|-7b|---------------------|------------------------|
ab|---|---------------------|------------------------|
Db|---|---------------------|------------------------|
                                                     |
eb|---|----------------------|-----------------------|
bb|---|----------------------|-----------------------|
gb|---|-------------1-1-1----|-----------------------|
db|-4-|-------------------2--|-7-7-------------------|
ab|-4-|-4-4-4-4-4-4----------|-7-7-------------------|
Db|-4-|-4-4-4-4-4-4----------|-7-7-------------------|
        x x x x x x

Intro(Again)
Chorus 2x

End On..

eb|-----|
bb|-----|
gb|-----|
db|-4---|
ab|-4---|
Db|-4---|
        |
eb|-----|
bb|-----|
gb|-11--|
db|-x---|
ab|-9---|
Db|-----|




** Stumming for the Chorus (Both Guitars) is off in the tab but it is easy
   to figure out.





Comments


Popular Aiden tabs & chords
Knife Blood Nightmare 2 Bass Tabs
Dawn Breaking Tide Tabs
Die Romantic 1 Tabs
Die Romantic 3 Tabs
Enjoy The View Tabs
King On Holiday Tabs
Knife Blood Nightmare Tabs
The Opening Departure Tabs
The Sky Is Fallling Tabs
Cry Little Sister Ukulele


Song lyrics



↑ Back to top | Tablatures and chords are parodies/interpretations of the original songs. You may use it for private study, scholarship, research or language learning purposes only
© 2014 AZChords.com Contact us | Privacy policy | DMCA | Add/correct tabs | Request tabs | Top 50 tabs