>
 >
Goodbye We're Falling Fast 1

Goodbye We're Falling Fast 1 Guitar Tabs

Aiden - Goodbye We're Falling Fast 1 chords, tabs, tablatures, lyrics

Guitar lessons | Add/correct | Request | Top 50 tabs Artists:  A B C D E F G H I J K L M N O P Q R S T U V W X Y Z 0-9

Goodbye We're Falling Fast 1 Guitar Tabs – Aiden

CD, Sheet music, Poster

Do you like Goodbye We're Falling Fast 1? Share with your friends now
Bass TabsTabsTabs v2
Goodbye we’re falling fast
Tuning: Standard


INTRO

guitar 1

|-------------------------------------|
|-------------------------------------|
|-9-9-10-10-10h9p10h9p----------------|           x8
|-------------------------------------|
|-------------------------------------|
|-------------------------------------|

guitar 2
|--------------------------------------------|
|--------------------------------------------|
|-6666666666666666-----------44444444--------|    x2
|-6666666666666666-77777777-44444444---------|
|-4444444444444444-77777777-22222222---------|
|--------------------55555555----------------|

guitar 1
|----------------------------------------|
|-------------9---------------------9-\--|
|-----------------9----------------------|
|---11---------------11------------------|
|----------------------------------------|
|----------------------------------------|

guitar 2
|----------------------------------------------|
|----------------------------------------------|
|-6666666666666666666666666666-----------------|
|-6666666666666666666666666666-----------------|
|-4444444444444444444444444444---4545----------|
|----------------------------------------------|

VERSE

guitar 1
|-------------------------------------------------------|
|-9-----10-9-9-----10-9-10-12------10-9-10--------------|
|-------------------------------------------9----8------|
|-------------------------------------------------------|
|-------------------------------------------------------|
|-------------------------------------------------------|

guitar 2
|--------------------------------------------------------------------------|
|--------------------------------------------------------------------------|
|-666-6---666--666-----------------------------------------------444-4-----|
|-666-6---666--666--777-7---777--777--222-2---222--222--444-4--444-4-------|
|-444-4---444--444--777-7---777--777--222-2---222--222--444-4--222-2-------|
|--------------------555-5---555--555--000-0---000--000--222-2-------------|

PRE-CHORUS

guitar 1
|---------------------------------|
|---------------------------------|
|-9-11---------9-11-------10------|  x4
|--------9-11--------9-11---------|
|---------------------------------|
|---------------------------------|

guitar 2 plays the same as verse

then both guitars play
|-------------------|
|----------12-------|
|------9------------|
|-11----------------|
|-------------------|
|-------------------|

CHORUS

guitar 1
|----------------------------------------|
|------------------7910-9-7--------------|
|--6--8--9-689-------------9--8----------|
|----------------------------------------|
|----------------------------------------|
|----------------------------------------|

guitar 2
|-----------------------------------------------|
|-----------------------------------------------|
|-----------44444444-6666666666666666-----------|
|-77777777-44444444-6666666666666666------------|
|-77777777-22222222-4444444444444444------------|
|-55555555--------------------------------------|

then play verse , pre-chorus, and chorus again

BREAK 1

guitar 1
|-----------------------------------------------------------------------------|
|-----------------------------------------------------------------------------|
|-6-66-6-6-6-6-6-6-6-6-4-4-4-4-4-4-4-4--------------------------4-44-4-4------| x2
|-6-66-6-6-6-6-6-6-6-6-4-4-4-4-4-4-4-4-7-7-7-7-7-7-7-7-6-6-6-6-4-44-4-4-------|
|-4-44-4-4-4-4-4-4-4-4-2-2-2-2-2-2-2-2-7-7-7-7-7-7-7-7-6-6-6-6-2-22-2-2-------|
|----------------------------------------5-5-5-5-5-5-5-5-4-4-4-4--------------|

then play
|----------|
|----------|
|-6-66-6-6-|
|-6-66-6-6-|
|-4-44-4-4-|
|----------|

guitar 2
|----|
|----|
|-\-6-|    play this chord the same rthym as guitar 1
|-\-6-|
|-\-4-|
|----|

BREAK 2

guitar 1
|------------------------------------------------|
|---------9----------9-----------12----------9---|       x3
|------9----------9----------9-----------9-------|
|-11--------11---------11----------11------------|
|------------------------------------------------|
|------------------------------------------------|

|-------------------------|
|--------9---------9------|
|-----9---------9---------|
|-11-------11-------11----|
|-------------------------|
|-------------------------|

guitar 2 plays the chorus 4 times clean

 then both guitars slide up and down
 then play chorus a few times

END
guitar 1
|----|
|----|
|-9--|
|----|
|----|
|----|
guitar 2
|----|
|----|
|-6--|
|-6--|
|-4--|
|----|

awesome song!





Comments


Popular Aiden tabs & chords
Knife Blood Nightmare Bass Tabs
Scavengers Of The Damned Bass Tabs
Die, Die My Darling Tabs
Genetic Design For Dying 1 Tabs
Its Cold Tonight Tabs
Last Sunrise Tabs
Last Sunrise 3 Tabs
The Devils Eyes Tabs
The Opening Departure Tabs
World By Storm Tabs


Song lyrics



↑ Back to top | Tablatures and chords are parodies/interpretations of the original songs. You may use it for private study, scholarship, research or language learning purposes only
© 2014 AZChords.com Contact us | Privacy policy | DMCA | Add/correct tabs | Request tabs | Top 50 tabs