» » »

Aiden, Goodbye We're Falling Fast Bass tabs (ver.1)

Artists:  A B C D E F G H I J K L M N O P Q R S T U V W X Y Z # 

Goodbye We're Falling Fast Bass tabs (ver.1)

Aiden Tabs
Rating:
0/5 (0 votes)
Goodbye We're Falling Fast lessons Tabs too difficult? Try these video lessons and learn fast
                .Intro.

00:00
G -------------------------------------------------------------------|
D -------------------------------------------------------------------|
A ---6>------2>------4>----------------------------------------------| 2x
D -------------------------------------------------------------------|

00:16
G -------------------------------------------------------------------|
D -------------------------------------------------------------------|
A ----6~--6~--6~--6~6------------------------------------------------|
D -------------------------------------------------------------------|

.1º Verse.

00:24
G --------------------------------------------------------------------|
D --------------------------------------------------------------------|
A ---666—666-66--222—222-22---------------------444-555---------------|
D ------------------------------444—444--44---------------------------|

00:37
G --------------------------------------------------------------------|
D --------------------------------------------------------------------|
A ---666~—666~-66--222~—222~-22----------------------444~-555~--------|
D ---------------------------------444~—444~--44----------------------|

.Pré-Chorus.

00:50
G --------------------------------------------------------------------|
D --------------------------------------------------------------------|
A ----6-6-6--4444444--------------------------------------------------|
D --------------------------------------------------------------------|

.1º Chorus.

00:53
G --------------------------------------------------------------------|
D --------------------------------------------------------------------|
A ----2>--4>--6>------------------------------------------------------| 2x
D --------------------------------------------------------------------|

1:06
G --------------------------------------------------------------------|
D --------------------------------------------------------------------|
A ----2>--4-----------------------------------------------------------|  1x
D --------------------------------------------------------------------|

.2º Verse.

01:09
G --------------------------------------------------------------------|
D --------------------------------------------------------------------|
A ---666—666-66--222—222-22---------------------444-555---------------|
D ------------------------------444—444--44---------------------------|

01:23
G --------------------------------------------------------------------|
D --------------------------------------------------------------------|
A ---666~—666~-66--222~—222~-22----------------------444~-555~--------|
D ---------------------------------444~—444~--44----------------------|

.Pré-Chorus (2).

01:36
G --------------------------------------------------------------------|
D --------------------------------------------------------------------|
A ----6-6-6--4444444--------------------------------------------------|
D --------------------------------------------------------------------|

.2º Chorus.

01:39
G --------------------------------------------------------------------|
D --------------------------------------------------------------------|
A ----2>--4>--6>------------------------------------------------------| 2x
D --------------------------------------------------------------------|

1:52
G --------------------------------------------------------------------|
D --------------------------------------------------------------------|
A ----2>--4>--6-------------------------------------------------------| 1x
D --------------------------------------------------------------------|

.Bridge.

01:56
G --------------------------------------------------------------------|
D --------------------------------------------------------------------|
A ----8/66666-6>--4>--2>--1>--44444-----------------------------------|
D --------------------------------------------------------------------|

02:09
G --------------------------------------------------------------------|
D --------------------------------------------------------------------|
A ---66666-6>--4>--2>--1>--44444-66666--------------------------------|
D --------------------------------------------------------------------|

.No Bass.

02:23


.Bass Return.

2:50
G --------------------------------------------------------------------|
D --------------------------------------------------------------------|
A ----6666666666------------------------------------------------------|
D --------------------------------------------------------------------|

.3º Chorus.

02:54
G --------------------------------------------------------------------|
D --------------------------------------------------------------------|
A ----2>--4>--6>------------------------------------------------------| 2x
D --------------------------------------------------------------------|

03:07
G --------------------------------------------------------------------|
D --------------------------------------------------------------------|
A ----22222--44444--6>------------------------------------------------|
D --------------------------------------------------------------------|

.End.

3:13
G --------------------------------------------------------------------|
D --------------------------------------------------------------------|
A ----2>--4--6^-------------------------------------------------------|
D --------------------------------------------------------------------|

Vini.Bass - BR
----------------------------------------------------------------------
            

comments powered by Disqus
↑ Back to top | Aiden Bass for Goodbye We're Falling Fast. Lyrics for acoustic guitar and electric guitar. Tablatures and chords are parodies/interpretations of the original songs. You may use it for private study, scholarship, research or language learning purposes only