» » »

Genetic Design For Dying Tabs (ver.2)

Artists:  A B C D E F G H I J K L M N O P Q R S T U V W X Y Z # 

Genetic Design For Dying Tabs (ver.2)

Aiden
Rating:
3/5 (3 votes)

Hard to play? Try these video lessons and learn fast.
                ----------------------------------------------------------------------------
                genetic design for dying - aiden
----------------------------------------------------------------------------

Tuning: D A D G B e


guitar 1 verse 1
|-------------------------------------------------------------|
|-------------------------------------------------------------|
|-------------------------------------------------------------|
|-6-666666666666-1-111111111111-6-666666666666-8-888888888888-|
|-6-666666666666-1-111111111111-6-666666666666-8-888888888888-|
|-6-666666666666-1-111111111111-6-666666666666-8-888888888888-|
    ************   ************   ************   ************
guitar 1 verse 2
|-------------------------------------------------------------|
|-------------------------------------------------------------|
|-------------------------------------------------------------|
|-6-666666666666-1-111111111111-6-666666666666-8-888888888888-|
|-6-666666666666-1-111111111111-6-666666666666-8-888888888888-|
|-6-666666666666-1-111111111111-6-666666666666-8-888888888888-|
    ************   ************   ************   *** *** *** 

guitar 2 verse 2
|----------|----------------------|-------------------------------------|
|----------|----------------------|-------------------------------------|
|-11-11----|-12-12-11-11-11-11----|-12-12-11-11-14-14-11-11-12-12-11-11-|
|-------12-|-------------------12-|-------------------------------------|
|----------|----------------------|-------------------------------------|
|----------|----------------------|-------------------------------------|
  *  *

chorus
|---------------------------------------------------|
|---------------------------------------------------|
|---------------55555555555-------------------------|
|-1111111111111-55555555555-66666666666-88888888888-|
|-1111111111111-33333333333-66666666666-88888888888-|
|-1111111111111-------------66666666666-88888888888-|

before verse starts again
|-------------------------|
|-------------------------|
|-88888-77777-------------|
|-------------66666-88888-|
|-66666-55555-66666-88888-|
|-------------66666-88888-|

(wake me now, drive faster...)
|--------------------|
|--------------------|
|--------------------|
|-8888-6666-55555555-|
|--------------------|
|--------------------| 3x
  **** **** ********
                                >redo all this after without palm mute
|---------------------|
|---------------------|
|---------------------|
|-8888-6666-5555-1111-|
|---------------------|
|---------------------| 1x
  **** **** **** ****

|---------------------|
|---------------------|
|---------------------|
|-8----6----555555555-|
|-8----6----555555555-|
|-8----6----555555555-|

|-----------------------|
|-----------------------|
|-----------------------|
|-8888-6666-55555-11111-|
|-8888-6666-55555-11111-|
|-8888-6666-55555-11111-|
            
Hard to play? Try these video lessons and learn fast. | Correct




comments powered by Disqus
↑ Back to top | Tablatures and chords are parodies/interpretations of the original songs. You may use it for private study, scholarship, research or language learning purposes only