» » »

Aiden, Genetic Design For Dying Tabs (ver.3)

Artists:  A B C D E F G H I J K L M N O P Q R S T U V W X Y Z # 

Genetic Design For Dying Tabs (ver.3)

Aiden Tabs
 Rating:
4.3/5 (6 votes)
Genetic Design For Dying lessons Tabs too difficult? Try these video lessons and learn fast
                 This is a pretty easy song. listen to the song for all the strumming patterns. this is 
first tab. so i hope its good.

  Verse
|------------------------------------------------------------|
|------------------------------------------------------------|
|-6-666666666666----------------2-222222222222-444444444444--|
|-6-666666666666-2-222222222222-2-222222222222-444444444444--| x2
|-4-444444444444-2-222222222222-0-000000000000-222222222222--|
|----------------0-000000000000------------------------------|
PM  ............   ............   ............ ............
Guitar 2. play on the 2nd time
|---------------------------------77---------|
|-------99---------99---------99------99-----|
|-66-9-6--99-66-9-6--99-66-9-6--99--99--99---|
|--------------------------------------------|  x2
|--------------------------------------------|
|--------------------------------------------|
PM.. . .     .. . .     .. . .

Chorus
|---------------------------------------------------------------------|
|---------------------------------------------------------------------|
|------------------6666666666666666-2222222222222222-4444444444444444-|
|-2222222222222222-6666666666666666-2222222222222222-4444444444444444-|  x2
|-2222222222222222-4444444444444444-0000000000000000-2222222222222222-|
|-0000000000000000----------------------------------------------------|

|---------------------|
|---------------------|
|-9----8----4----6----|
|-x----x----4----6----|  x2
|-7----6----2----4----|
|---------------------|

after that it's the verse then the chorus and the the bridge witch is this.

for this part guitar one (the only guitar plying) is clean

|--------------------|
|--------------------|
|--------------------|
|-9999-7777-66666666-| x4
|--------------------|
|--------------------|
PM.... .... ........

|--------------------|
|--------------------|
|--------------------|
|-9999-7777-66666666-|
|--------------------|
|--------------------|

|---------------------------------------------------------------------|
|---------------------------------------------------------------------|
|---------------------------------------------------------------------|
|---------------------------------------------------------------------| x2
|-9--9--9--9--9-9--7--7--7--7--7-7--6--6--6--6--6-6--7--7--7--7--7-7--|
|-9--9--9--9--9-9--7--7--7--7--7-7--6--6--6--6--6-6--7--7--7--7--7-7--|
|-7--7--7--7--7-7--5--5--5--5--5-5--4--4--4--4--4-4--5--5--5--5--5-5--|

After that its the chours again and end on

|---------------|
|---------------|
|---------------|
|-2-------------|
|-2-------------|
|-0-------------|

THAT'S IT!!! i hope it's good. like i said its an easy song. ill do tabs for Die 
and The Last Sunrise sometime. enjoy.
If you have questions or comments or any of that good stuff. e-mail me at 
One last time ENJOY!!!!
            
Submit corrections

comments powered by Disqus
↑ Back to top | Aiden Tabs for Genetic Design For Dying. Lyrics for acoustic guitar and electric guitar. Tablatures and chords are parodies/interpretations of the original songs. You may use it for private study, scholarship, research or language learning purposes only