» » »

Die, Die My Darling Tabs (ver.2)

Artists:  A B C D E F G H I J K L M N O P Q R S T U V W X Y Z # 

Die, Die My Darling Tabs (ver.2)

Aiden
Rating:
0/5 (0 votes)

Tabs too difficult? Try these video lessons and learn fast.
                -----------------------------------------------------------------
SONG NAME - Die Die My Darling
Band Name- Aiden
-----------------------------------------------------------------

Tuning: STANDARD

I haven't got the whole song yet, but I'm working on it. Hopefully what I have so far 
note: this is for guitar 1 only.

Intro

e|---------------------------------------------------------------|
B|---------------------------------------------------------------|
G|---------------------------------------------------------------|
D|---------9---------9--------9--------9-------------------------| x3
A|------9---------9--------9--------9----------------------------|
E|---7---------7--------7--------7-------------------------------|

e|---------------------------------------------------------------|
B|---------------------------------------------------------------|
G|---1111111111111111--99999999-66666666-------------------------|
D|---x-x-x-x-x-x-x-x---xxxxxxxx-xxxxxxxx-------------------------| x3
A|---9-9-9-9-9-9-9-9---77777777/44444444-------------------------|
E|---------------------------------------------------------------|

e|---------------------------------------------------------------|
B|---------------------------------------------------------------|
G|---------------------------------------------------------------|
D|---9---11-9-------911-12-14-16---------------------------------|
A|---x----x-x-------x-x--x--x--x---------------------------------|
E|---7~---9/7~------7/9-10/12-14~--------------------------------|

Verse

e|---------------------------------------------------------------|
B|---------------------------------------------------------------|
G|---------------------------------------------------------------|
D|---00--5-0-4--00--5-0-4--00--5-0-4--00--5-0-4--00--5-0-4-------|
A|---------------------------------------------------------------|
E|---------------------------------------------------------------|
     ..    .    ..    .    ..    .    ..    .    ..    .            x3
e|---------------------------------------------------------------|
B|---------------------------------------------------------------|
G|---------------------------------------------------------------|
D|---00--5-0-4--00--5-0-4-5/7-5-4-5-4-0--------------------------|
A|---------------------------------------------------------------|
E|---------------------------------------------------------------|
     ..    .    ..    .

Chorus

e|---------------------------------------------------------------|
B|---------------------------------------------------------------|
G|---1111111111111111--99999999-66666666-------------------------|
D|---x-x-x-x-x-x-x-x---xxxxxxxx-xxxxxxxx-------------------------| x3
A|---9-9-9-9-9-9-9-9---77777777/44444444-------------------------|
E|---------------------------------------------------------------|

e|---------------------------------------------------------------|
B|---------------------------------------------------------------|
G|---------------------------------------------------------------|
D|---9---11-9-------911-12-14-16---------------------------------|
A|---x----x-x-------x-x--x--x--x---------------------------------|
E|---7~---9/7~------7/9-10/12-14~--------------------------------|

Verse

e|---------------------------------------------------------------|
B|---------------------------------------------------------------|
G|---------------------------------------------------------------|
D|---00--5-0-4--00--5-0-4--00--5-0-4--00--5-0-4--00--5-0-4-------|
A|---------------------------------------------------------------|
E|---------------------------------------------------------------|
     ..    .    ..    .    ..    .    ..    .    ..    .            x3
e|---------------------------------------------------------------|
B|---------------------------------------------------------------|
G|---------------------------------------------------------------|
D|---00--5-0-4--00--5-0-4-5/7-5-4-5-4-0--------------------------|
A|---------------------------------------------------------------|
E|---------------------------------------------------------------|
     ..    .    ..    .
Chorus


e|---------------------------------------------------------------|
B|---------------------------------------------------------------|
G|---1111111111111111--99999999-66666666-------------------------|
D|---x-x-x-x-x-x-x-x---xxxxxxxx-xxxxxxxx-------------------------| x3
A|---9-9-9-9-9-9-9-9---77777777/44444444-------------------------|
E|---------------------------------------------------------------|

e|---------------------------------------------------------------|
B|---------------------------------------------------------------|
G|---------------------------------------------------------------|
D|---9---11-9-------911-12-14-16---------------------------------|
A|---x----x-x-------x-x--x--x--x---------------------------------|
E|---7~---9/7~------7/9-10/12-14~--------------------------------|

That's as much as I have.


| /  slide up
| \  slide down
| h  hammer-on
| p  pull-off
| ~  vibrato
| +  harmonic
| x  Mute note
            
Tabs too difficult? Try these video lessons and learn fast.




comments powered by Disqus
↑ Back to top | Tablatures and chords are parodies/interpretations of the original songs. You may use it for private study, scholarship, research or language learning purposes only