» » »

Aiden, Die, Die My Darling Tabs (ver.1)

Artists:  A B C D E F G H I J K L M N O P Q R S T U V W X Y Z # 

Die, Die My Darling Tabs (ver.1)

Aiden Tabs
 Rating:
4/5 (4 votes)
Die, Die My Darling lessons Tabs too difficult? Try these video lessons and learn fast
                ----------------------------------------------------------------------------
                         DIE DIE MY DARLING - Aiden
----------------------------------------------------------------------------

Tuning: Standard

Guitar I- Angel Ibarra
Guitar II- Jake Wambold


INTRO

[Guitar I]
e|-----------------------------------------|
B|-----------------------------------------|
G|------------------------4~--------0~-----|
D|----0-4~------0-4~--------4~--------4~---|
A|--2---------2---------2---------2--------|
E|-----------------------------------------| (x3)

e|----------------------------------------------|
B|----------------------------------------------|
G|--11-11-11-11-11-11-11-11--9-9-9-9--6-6-6-6---|
D|--x--x--x--x--x--x--x--x---x-x-x-x--x-x-x-x---|
A|--9--9--9--9--9--9--9--9---7-7-7-7--4-4-4-4---|
E|----------------------------------------------|
"Die!"

[Guitar II]
e|--------------------------------|
B|--------------------------------|
G|--4~~---------------------------|
D|--4~~--------5~------4~---------|
A|--2~~--------5~------4~---------|
E|-------------3~------2~---------|


CHORUS

[Guitar I]
e|----------------------------------------------|
B|----------------------------------------------|
G|--11-11-11-11-11-11-11-11--9-9-9-9--6-6-6-6---|
D|--x--x--x--x--x--x--x--x---x-x-x-x--x-x-x-x---|
A|--9--9--9--9--9--9--9--9---7-7-7-7--4-4-4-4---|
E|----------------------------------------------| (x2)
"Die, die, die my darling!"

[Guitar II]
e|--------------------------------|
B|--------------------------------|
G|--4~~---------------------------|
D|--4~~--------5~------4~---------|
A|--2~~--------5~------4~---------|
E|-------------3~------2~---------| (x2)
"Die, die, die my darling!"

[Guitars I & II]
e|-----------------------------------|
B|-----------------------------------|
G|--4~~-------------4~~--------------|
D|--x~~-------------x~~--------------|
A|--2~~-------------2~~--------------|
E|-----------------------------------|
"I'll be seeing you again"

[Guitar I]
e|----------------------------------------------------|
B|----------------------------------------------------|
G|--4-4-4-4-6-6-6-6-7-7-7-7-9-9-9-9-11-11-11-11--11---|
D|--x-x-x-x-x-x-x-x-x-x-x-x-x-x-x-x-x--x--x--x---x----|
A|--2-2-2-2-4-4-4-4-5-5-5-5-7-7-7-7-9--9--9--9---9----|
E|----------------------------------------------------|
"I'll be seeing you..."

[Guitar II]
pm  * * * * * * * *  * * * * * * * *
e|----------------------------------------|
B|----------------------------------------|
G|----------------------------------------|
D|--7-7-7-7-7-7-7-7--7-7-7-7-7-7-7-7--7---|
A|--7-7-7-7-7-7-7-7--7-7-7-7-7-7-7-7--7---|
E|--5-5-5-5-5-5-5-5--5-5-5-5-5-5-5-5--5---|


VERSE

[Guitar I]
pm  * *   *         *   *         *   *
e|--------------------------------------------|
B|--------------------------------------------|
G|--------------------------------------------|
D|------5---4-0-------5---4-0-------5---4-0---|
A|--2-2---2---------2---2---------2---2-------|
E|--------------------------------------------| (x2)
"In hell... Don't cry to me, oh baby!

pm  * *   *
e|-----------------------------|
B|-----------------------------|
G|-----------------------------|
D|------5---4-4/7-5-4--5-4-----|
A|--2-2---2----------------5---|
E|-----------------------------|


OUTRO

[Guitar I]
e|----------------------------------------------|
B|----------------------------------------------|
G|--11-11-11-11-11-11-11-11--9-9-9-9--6-6-6-6---|
D|--x--x--x--x--x--x--x--x---x-x-x-x--x-x-x-x---|
A|--9--9--9--9--9--9--9--9---7-7-7-7--4-4-4-4---|
E|----------------------------------------------| (x6)
"Die, die, die my darling!"

[Guitar II]
e|--------------------------------|
B|--------------------------------|
G|--4~~---------------------------|
D|--4~~--------5~------4~---------|
A|--2~~--------5~------4~---------|
E|-------------3~------2~---------| (x7)
"Die, die, die my darling!"

(Note: There is a high-pitched
beeping noise throughout the
whole song. I've decided it's
an extra guitar doing this repetedly.)

e|--14-14-14-14-14-14-14-14---|
B|----------------------------|
G|----------------------------|
D|----------------------------|
A|----------------------------|
E|----------------------------|

INTRO
CHORUS
VERSE x3
CHORUS
VERSE x2
CHORUS
OUTRO

This song was originally by The Misfits. The Misfits were an amazing band, and a major 
to punk rock, and their memory shall not be forgotten. Remember, everyday is Halloween.
            
Submit corrections

comments powered by Disqus
↑ Back to top | Aiden Tabs for Die, Die My Darling. Lyrics for acoustic guitar and electric guitar. Tablatures and chords are parodies/interpretations of the original songs. You may use it for private study, scholarship, research or language learning purposes only