» » »

Agnostic Front, Believe Bass tabs (ver.1)

Artists:  A B C D E F G H I J K L M N O P Q R S T U V W X Y Z # 

Believe Bass tabs (ver.1)

Agnostic Front Tabs
Rating:
2/5 (1 vote)
Believe lessons Tabs too difficult? Try these video lessons and learn fast
                -------------------------------------------------------------
		I		Believe by Agnostic Front		            I
		I			Bass Line		 	                  I
		I	From their latest CD "Something's gotta give"	      I
		-------------------------------------------------------------


Notations : ^ Continuation of the note


Introduction :
							      	       3x
G||-----------------------|--------------------------|--------------------||------------|
D||*----------------------|--------------------------|7------------------*||4-----------|
A||*--5----3----2----^--2-|--^---2----2----2---------|8------------------*||2--5---3----|
E||-----------------------|---------------------3----|-^--3----3----3--^--||------------|
      1    2    3    4  .    1   2    | 3  |    4      1  .  2 .  3 .  4       1   2
				 		  ------
                                        3
Verse 1 & 2 :

|---------------------------|--------------------------|-----------------------|
|*--------------------------|--------------------------|-----------------------|
|*--2--2--2--2--2--2--2--2--|--3--3--3--3--3--3--3--3--|-----------------------|
|---------------------------|--------------------------|--3--3--3------5----5--|
    1  .  2  .  3  .  4  .     1  .  2  .  3  .  4  .     1  .  2  .   3    4
	

       		        3x
---------------------------||
--------------------------*||
--5--5--5--5--5--5--5--5--*||
---------------------------||
  1  .  2  .  3  .  4  .


Chorus 1 & 2
                                                      3x
||---------------------------|---------------------------||
||*--------------------------|--------------------------*||
||*--2--2--2--2--3--3--3--3--|--------------------------*||
||---------------------------|--3--3--3--3--3--3--3--3---||
     1  .  2  .  3  .  4  .     1  .  2  .  3  .  4  .


Bridge 1 & 2
                                                               
||-----------------------|----------------------|----------------------|----------------------||
||*----------------------|----------------------|----------------------|---------------------*||
||*----------------------|--2----2----3---------|----------------------|---------------------*||
||---0----0----0----0----|-----------------3----|--0----0----0----0----|--3----3----5----^----||
     1    2    3    4       1    2    3    4       1    2    3    4       1    2    3    4


The song goes like this :
- introduction
- verse 1
- chorus 1
- bridge 1
- verse 2
- chorus 2
- bridge 2
          
And never forget that if you see a crocodile f**k a duck and you can fly!
DuckLC
            

comments powered by Disqus
↑ Back to top | Agnostic Front Bass for Believe. Lyrics for acoustic guitar and electric guitar. Tablatures and chords are parodies/interpretations of the original songs. You may use it for private study, scholarship, research or language learning purposes only