» » »

Agnostic Front, Believe Tabs (ver.1)

Artists:  A B C D E F G H I J K L M N O P Q R S T U V W X Y Z # 

Believe Tabs (ver.1)

Agnostic Front Tabs
 Rating:
4/5 (4 votes)
Believe lessons Tabs too difficult? Try these video lessons and learn fast
1
                E||--------------------||-----------------------|--------------------------|
B||--------------------||-----------------------|--------------------------|
G||--------------------||*--7----5----4------4--|------4----4----4---------|
D||--------------------||*--7----5----4------4--|------4----4----4----5----|
A||--x--------x--------||---5----3----2------2--|------2----2----2----5----|
E||--x--------x--------||-----------------------|---------------------3----|


                    3x                                          
--------------------||------------||---------------------------|
--------------------||------------||---------------------------|
-------------------*||--7----5----||*--4--4--4--4--4--4--4--4--|
----5----5----5----*||--7----5----||*--4--4--4--4--4--4--4--4--|
----5----5----5-----||--5----3----||---2--2--2--2--2--2--2--2--|
----3----3----3-----||------------||---------------------------|


                                                     
--------------------------|-------------------------|
--------------------------|-------------------------|
--5--5--5--5--5--5--5--5--|-------------------------|
--5--5--5--5--5--5--5--5--|--5-5-5-5-5------7----7--|
--3--3--3--3--3--3--3--3--|--5-5-5-5-5------7----7--|
--------------------------|--3-3-3-3-3------5----5--|


                           3x                            
---------------------------||---------------------------|
---------------------------||---------------------------|
--7--7--7--7--7--7--7--7--*||*--4--4--4--4--5--5--5--5--|
--7--7--7--7--7--7--7--7--*||*--4--4--4--4--5--5--5--5--|
--5--5--5--5--5--5--5--5---||---2--2--2--2--3--3--3--3--|
---------------------------||---------------------------|


                           3x                            
---------------------------||---------------------------|
---------------------------||---------------------------|
--------------------------*||*--9--9--9--9--9--9--9--9--|
--5--5--5--5--5--5--5--5--*||*--9--9--9--9--9--9--9--9--|
--5--5--5--5--5--5--5--5---||---7--7--7--7--7--7--7--7--|
--3--3--3--3--3--3--3--3---||---0--0--0--0--0--0--0--0--|


                                                                              
-------------------------|--------------------------|-----------------------||
-------------------------|--------------------------|-----------------------||
--4--4--4--4--5--5-------|--9--9--9--9--9--9--9--9--|----------------------*||
--4--4--4--4--5--5--5----|--9--9--9--9--9--9--9--9--|--5--5----7--7--------*||
--2--2--2--2--3--3--5----|--7--7--7--7--7--7--7--7--|--5--5----7--7---------||
--------------------3----|--0--0--0--0--0--0--0--0--|--3--3----5--5---------||


                                                       
---------------------------|--------------------------|
---------------------------|--------------------------|
*--4--4--4--4--4--4--4--4--|--5--5--5--5--5--5--5--5--|
*--4--4--4--4--4--4--4--4--|--5--5--5--5--5--5--5--5--|
---2--2--2--2--2--2--2--2--|--3--3--3--3--3--3--3--3--|
---------------------------|--------------------------|


                                                     3x
-------------------------|---------------------------||
-------------------------|---------------------------||
-------------------------|--7--7--7--7--7--7--7--7--*||
--5-5-5-5-5------7----7--|--7--7--7--7--7--7--7--7--*||
--5-5-5-5-5------7----7--|--5--5--5--5--5--5--5--5---||
--3-3-3-3-3------5----5--|---------------------------||


                                                       3x
---------------------------|---------------------------||
---------------------------|---------------------------||
*--4--4--4--4--5--5--5--5--|--------------------------*||
*--4--4--4--4--5--5--5--5--|--5--5--5--5--5--5--5--5--*||
---2--2--2--2--3--3--3--3--|--5--5--5--5--5--5--5--5---||
---------------------------|--3--3--3--3--3--3--3--3---||


                                                      
---------------------------|-------------------------|
---------------------------|-------------------------|
*--9--9--9--9--9--9--9--9--|--4--4--4--4--5--5-------|
*--9--9--9--9--9--9--9--9--|--4--4--4--4--5--5--5----|
---7--7--7--7--7--7--7--7--|--2--2--2--2--3--3--5----|
---0--0--0--0--0--0--0--0--|--------------------3----|


                                                    
--------------------------|-----------------------||
--------------------------|-----------------------||
--9--9--9--9--9--9--9--9--|----------------------*||
--9--9--9--9--9--9--9--9--|--5--5----7--7--------*||
--7--7--7--7--7--7--7--7--|--5--5----7--7---------||
--0--0--0--0--0--0--0--0--|--3--3----5--5---------||
            
Submit corrections

comments powered by Disqus
↑ Back to top | Agnostic Front Tabs for Believe. Lyrics for acoustic guitar and electric guitar. 1 Tablatures and chords are parodies/interpretations of the original songs. You may use it for private study, scholarship, research or language learning purposes only