>
 >
Girls Not Grey

Girls Not Grey Guitar Tabs

A Fire Inside - Girls Not Grey chords, tabs, tablatures, lyrics

Guitar lessons | Add/correct | Request | Top 50 tabs Artists:  A B C D E F G H I J K L M N O P Q R S T U V W X Y Z 0-9

Girls Not Grey Guitar Tabs – A Fire Inside

CD, Sheet music, Poster

Do you like Girls Not Grey? Share with your friends now
Tabs
Afi - Girls Not Grey

Slick Song, not too hard and its fun to play.

Intro Pt.1
E/------------------------/
B/------------------------/
G/--------9-99------------/ x4
D/--66-66-9-99-4-44-4-6-66/
A/--66-66-7-77-4-44-4-6-66/
E/--44-44------2-22-2-4-44/

Guitar 2 (after second time intro is played)
E/-----------------------------/
B/-----------------------------/
G/-----------------------------/
D/--11-h13-8-h9-99998----x2----/
A/-------------------9-11--6---/
E/--------------------------7-4/

Intro Pt.2
E/------------------------------------------------------------------/
B/------------------------------------------------------------------/
G/---------66-66-666-44-444-6-66-666--------6-66-666-66-666-4-44-444/ 
D/---------44-44-444-22-222-4-44-444--------4-44-444-66-666-4-44-444/
A/--66-666---------------------------66-666-------------------------/
E/--44-444---------------------------44-444-------------------------/

Verse
E/------------------------------------------------------------------/
B/------------------------------------------------------------------/
G/---------66-66-666-44-444-6-66-666--------6-66-666-66-666-4-44-444/ x2 
D/---------44-44-444-22-222-4-44-444--------4-44-444-66-666-4-44-444/
A/--66-666---------------------------66-666-------------------------/
E/--44-444---------------------------44-444-------------------------/

The first time the verse is played, everything is palm muted.

Pre Chorus
E/------------------/
B/------------------/
G/------------------/
D/--6-66666666666666/
A/--6-66666666666666/
E/--4-44444444444444/

When you play the pre chorus, the first chord is palm muted and is gradually released. If you listen to the song, you’ll know what I mean

Chorus
E/-----------------------/
B/-----------------------/
G/--9-99-44-44-----------/
D/--9-99-44-44-4-44-66-66/
A/--7-77-22-22-4-44-66-66/
E/-------------2-22-44-44/

Chorus Ending
E/----------------------------------------/
B/-------------8-9-11-11-11-11-11-11-11-11/
G/--9-99-44-44-8-8-8--8--8--8--8--8--8--8-/
D/--9-99-44-44----------------------------/
A/--7-77-22-22----------------------------/
E/----------------------------------------/

Bridge Pt.1
E/---------------------------------/
B/---------------------------------/
G/--99-999-4-44-444----------------/ x1
D/--99-999-4-44-444-44-444-6-66-666/
A/--77-777-2-22-222-44-444-6-66-666/
E/------------------22-222-4-44-444/

Bridge Pt.1 (Cont.)
E/---------------------------------------------------------------/
B/---------------------------------------------------------------/
G/--99-999-4-44-444----------------------------------------------/
D/--99-999-4-44-444-44-444-66-66-6-8-99-999-4-44-444-666666666666/
A/--77-777-2-22-222-44-444-66-66-6-8-99-999-4-44-444-666666666666/
E/------------------22-222-44-44-4-6-77-777-2-22-222-444444444444/

Bridge Pt.1 (Cont.)
E/------------------------------/
B/------------------------------/
G/--99-999-4-44-444-------------/
D/--99-999-4-44-444-4-----------/
A/--77-777-2-22-222-4-(let ring)/
E/------------------2-----------/

Bridge Pt.2
E/-------------------/
B/-------------------/
G/----8---8-------8--/ x4 
D/-----9---8-9-----8-/
A/--11--11----6-9----/
E/-------------------/




Bridge Pt.3 (Distortion) x2
E/----11----11-------------11-----11------11--------------14----12----/
B/------12----12-------------11-----12------12--------------12----12--/
G/--13----13----11-h13-11-9-----13------13------11-h13-11-----13----13/
D/--------------------------------------------------------------------/
A/--------------------------------------------------------------------/
E/--------------------------------------------------------------------/

Right after bridge part 3 is played, guitar 2 plays this...
E/--------------------------/
B/--------------------------/
G/--13-13--11-11-11--999-888/
D/--x--x---x--x--x---xxx-xxx/
A/--11-11--9--9--9---777-666/
E/--------------------------/

Repeat chorus and play this ending
E/------------------------/
B/------------------------/
G/-----99-999-------------/ x3
D/6-66-99-999-44-444-66-66/
A/6-66-77-777-44-444-66-66/
E/4-44--------22-222-44-44/

After third time ending is played, play this
E/--------------------/
B/--------------------/
G/-------99-----------/
D/--6-66-99-4444-4----/
A/--6-66-77-2222-1-4-6/
E/--4-44-----------2-4/

Order

Intro Pt.1
Intro Pt.2
Verse
Chorus
Intro Pt.2
Verse
Chorus
Bridge Pt.1
Bridge Pt.2
Bridge Pt.3
Bridge Pt.3 Ending
Chorus
Ending

Enjoy hosiers! Please rate my tabs :->





Comments


Popular A Fire Inside tabs & chords
File Bass Tabs
Girls Not Grey 1 Bass Tabs
Totalimmortal Bass Tabs
God Called In Sick Today Tabs


Song lyrics



↑ Back to top | Tablatures and chords are parodies/interpretations of the original songs. You may use it for private study, scholarship, research or language learning purposes only
© 2014 AZChords.com Contact us | Privacy policy | DMCA | Add/correct tabs | Request tabs | Top 50 tabs