» » »

Totalimmortal Bass tabs (ver.1)

Artists:  A B C D E F G H I J K L M N O P Q R S T U V W X Y Z # 

Totalimmortal Bass tabs (ver.1)

A Fire Inside
Rating:
0/5 (0 votes)

Tabs too difficult? Try these video lessons and learn fast.
                
the bass a little more clearly.

Tuning: Standard (EADG)

Modified on December 21, 2003

After modifying this tab, the timing is now 100% accurate and it should be easier to
read. I also fixed up a couple of other things. Thank you to the people who gave
this tab a five star rating! Please rate my tab if you haven't already!

Intro/Post Chorus:

First Time:

G|------------------------------------------------------7-9-7-----|
D|------------------------------------------------5-7/9-------9\--|
A|------7---7-7---------5---5-5---------7---7-7-------------------|
E|0-0-0-----------3-3-3-----------0-0-0---------------------------|

G|--------------------------------------------9->->->->->->->->->-| Sustain.
D|--------------------------------5-----7-----9->->->->->->->->->-|
A|------7->-7-7->-------5---5-5-----------------------------------|
E|0-0-0-----------3-3-3-------------------------------------------|

The first time around, the 9's are struck once and sustained. The second time, the
9's are hit repeatedly and cut off for a second of silence.

Second time:

G|------------------------------------------------------7-9-7-----|
D|------------------------------------------------5-7/9-------9\--|
A|------7---7-7---------5---5-5---------7---7-7-------------------|
E|0-0-0-----------3-3-3-----------0-0-0---------------------------|

G|--------------------------------------------9-----9-9-9-9-.-----| Don't sustain.
D|--------------------------------5-----7-----9-----9-9-9-9-.-----|
A|------7---7-7---------5---5-5-----------------------------------|
E|0-0-0-----------3-3-3-------------------------------------------|

Verse:

G|----------------------------------------------------------------|
D|----------------------------------------------------------------|
A|7-7-7-7\----------5-5-5---------7-7-7-7\----------------5-5-5-5-|
E|------------------------3-3-3-3-------------------3-3-3---------|

G|----------------------------------------------------------------|
D|------------------------------------------------------5-5-5-5---|
A|7-7-7-7\----------5-5-5-----------------------------------------|
E|------------------------3-3-3-3-5---6---3-----------------------|

G|----------------------------------------------------------------|
D|----------------------------------------------------------------|
A|7-7-7-7\----------5-5-5---------7-7-7-7\----------------5-5-5-5-|
E|------------------------3-3-3-3-------------------3-3-3---------|

G|----------------------------------------------------------------|
D|----------------------------------------------------------------|
A|7-7-7-7\----------5-5-5-------------------------------------8---|
E|------------------------3-3-3-3-7-7-7-7-7-7-7-7-7-7-7-7-7-7-----|

Sometimes Hunter will variate the first note with a higher octave:

G|----9--|
D|-------|
A|7-7--7\|
E|-------|

Pre-Chorus:

Keep playing 7 until every instrument stops and slide down. Then, just before the chorus starts, slide back up to 7 again.

G|----------------------------------------------------------------|
D|----------------------------------------------------------------|
A|7-7-7-7-7-7-7-7-7-7-7-7-7-7-7-7-7-7-7-7-7-7-7-7-7\---------/7---|
E|----------------------------------------------------------------|

Chorus:

G|----------------------------------------------------------------|
D|----------------------------------------------------------------|
A|7-7-7-7-7-7-7-7-7-7-5-7-7-7-7-----------------------2-2-3-3-4-4-|
E|------------------------------2-3-3-3-3-3-3-3-3-3-3-------------|

G|----------------------------------------------------------------|
D|----------------------------------------------------------------|
A|5-5-5-5-5-5-5-5-5-5-4-4-5-5-5-6-7-7-7-5-5-5-7-7-7-----------5-6-|
E|--------------------------------------------------2-2-3-3-7-----|

G|----------------------------------------------------------------|
D|----------------------------------------------------------------|
A|7-7-7-7-7-7-7-7-7-7-5-7-7-7-7-----------------------2-2-3-3-4-4-|
E|------------------------------2-3-3-3-3-3-3-3-3-3-3-------------|

G|-------------------------------------------/11------------------| These are 11's
D|-------------------------------------/9----------/12------------| and 12's, not
A|5-5-5-5-5-5-5-5-5-5-4-4-5-5-5-X-7-------------------------------| 1's and 2's.
E|----------------------------------------------------------------|

Breakdown before final chorus:

G|----------------------------------------------------------------|
D|----------------------------------------------------------------|
A|5-7---7-7---7-7-5-7---7-7---7-7-5-7---7-7---7-7-5-7---7-7---7-7-|
E|----------------------------------------------------------------|

G|----------------------------------------------------------------|
D|----------------------------------------------------------------|
A|5-7---7-7---7-7-5-7---7-7---7-7-----------------3-5---5-5-------|
E|--------------------------------2-3---3-3---3-3-------------5-7-|\
                                                                    | Repeat these.
G|----------------------------------------------------------------|/
D|--------------------------------5-7-7-7-7-7-7-7-----------------|
A|5-7---7-7---7-7-5-7---7-7---7-7-------------------------7-8-8-8-|
E|------------------------------------------------5-7-7-7---------|

And play this right before the final chorus begins:

G|----------------------------------------------------------------| Sustain it.
D|----------------------------------------------------------------|
A|7->->->->->->->->->->->->->->->->->->->->->->->->->->->->->->->-|
E|----------------------------------------------------------------|

Outro after the final chorus:

Just play one big long open E and sustain it until the song's over.

G|----------------------------------------------------------------|
D|----------------------------------------------------------------|
A|----------------------------------------------------------------|
E|0->->->->->->->->->->->->->->->->->->->->->->->->->->->->->->->-|

Have any questions? Go back to the top of the page to find out how to contact me.
            
Tabs too difficult? Try these video lessons and learn fast.


comments powered by Disqus
↑ Back to top | Tablatures and chords are parodies/interpretations of the original songs. You may use it for private study, scholarship, research or language learning purposes only