» » »

God Called In Sick Today Tabs (ver.1)

Artists:  A B C D E F G H I J K L M N O P Q R S T U V W X Y Z # 

God Called In Sick Today Tabs (ver.1)

A Fire Inside
Rating:
0/5 (0 votes)

Hard to play? Try these video lessons and learn fast.
                afi
                              god called in sick today
e|------------------------------------------------------------------------------   I
b|------------------------------------------------------------------------------   N
g|--------3-----3--------2-----2---------2-----2---------3-----3-----------------  T
d|---5-5---5-5---5-5-3-3---3-3---3-3-0-0---0-0---0-0-1-1---1-1---1-1------------   R
a|------------------------------------------------------------------------------   O
E|------------------------------------------------------------------------------   !

                                              
e|---------------------------------------------------------------------------    I
b|-------------6-------------------------------------------------------------    N
g|--------3------3---3-----2-----2----------2-3-2---------3-----3------------    T
d|---5-5----5------5---3-3---3-3---3-3-0-3--------3-0-1-1---1-1---1-1---------   R
a|---------------------------------------------------------------------------    O
E|---------------------------------------------------------------------------    !


       P   A  L  M          M  U  T  E          T  H  I  S        P  A  R  T  
e|----------------------------------------------------------------------------   B
b|---------------------------------------------------------------------------    R
g|---------------------------------------------------------------------------    I
d|---5-5-5-5-5-5-5-5-3-3-3-3-3-3-3-3-0-0-0-0-0-0-0-0-1-1-1-1-1-1-1-1-----------  D
a|----------------------------------------------------------------------------   G
E|---------------------------------------------------------------------------    E

     
      |---------PALM MUTED---------|
e|--------------------------------------------------------------------------    B
b|----------------------------------------------------------------------------  R
g|-----------------------------------6-6-6-6-6-6-6-6-8-8-8-8-8-8-8-8----------  I
d|---5-5-5-5-5-5-5-5-3-3-3-3-3-3-3-3-6-6-6-6-6-6-6-6-8-8-8-8-8-8-8-8 ---------- D
a|-----------------------------------4-4-4-4-4-4-4-4-6-6-6-6-6-6-6-6 ---------- G
E|---------------------------------------------------------------------------   E


e|-------------------------------------------------------------- C
b|-------------------------------------------------------------- H
g|-----------------5-5-5-5-------------------------------------- O
d|---8-8-8-8-8-8-8-5-5-5-5-5-5-5-5-5-5-5-1-1-1-1---------------- R
a|---8-8-8-8-8-8-8-3-3-3-3-5-5-5-5-5-5-5-1-1-1-1---------------  U
E|---6-6-6-6-6-6-8---------3-3-3-3-3-3-3-3-3-3-3---------------  S



e|----------------------------------------------------------   C
b|----------------------------------------------------------   H
g|-----------------5-5-5-5---------------8-8-8-8-------------  O
d|---8-8-8-8-8-8-8-5-5-5-5-5-5-5-5-5-5-5-8-8-8-8-------------  R
a|---8-8-8-8-8-8-8-3-3-3-3-5-5-5-5-5-5-5-6-6-6-6-- ----------- U
E|---6-6-6-6-6-6-6---------3-3-3-3-3-3-3---------------------  S


REPEAT INTRO BUT PALM MUTE IT

          palm mute the first 4 of each set of 6
e|-------------------------------------------------------------------------------
b|-------------------------------------------------------------------------------
g|---12-12-12-12-12-12-10-10-10-10-10-10-7-7-7-7-7-7-8-8-8-8-8-8
d|---12-12-12-12-12-12-10-10-10-10-10-10-7-7-7-7-7-7-8-8-8-8-8-8
a|---10-10-10-10-10-10--8--8--8--8--8--8-5-5-5-5-5-5-6-6-6-6-6-6
E|--------------------------------------------------------------------------------


CHORUS


e|------------------------------------------------------------------------
b|------------------------------------------------------------------------
g|-------------------------------------------------------------------------
d|---12-12-12-12-12-12-12-10-10-10-10-7-7-7-7-7-7-7-8-8-8-8
a|---12-12-12-12-12-12-12-10-10-10-10-7-7-7-7-7-7-7-8-8-8-8
E|---10-10-10-10-10-10-10--8--8--8--8-5-5-5-5-5-5-5-6-6-6-6

CHORUS
            
Hard to play? Try these video lessons and learn fast. | Correct




comments powered by Disqus
↑ Back to top | Tablatures and chords are parodies/interpretations of the original songs. You may use it for private study, scholarship, research or language learning purposes only