» » »

A Fine Frenzy, Almost Lover Tabs (ver.2)

Artists:  A B C D E F G H I J K L M N O P Q R S T U V W X Y Z # 

Almost Lover Tabs (ver.2)

A Fine Frenzy Tabs
 Rating:
4.3/5 (6 votes)
Almost Lover lessons Tabs too difficult? Try these video lessons and learn fast
1
                The chords used are Am, F, G, and C

-Intro-

e ----------------------------------------------------------|
B ----------------------------------------------------------|
G --2-----2-----2------2------2-----2-----2------2----------|
D --2--2-----2-----2------2---3--3-----3-----3-------3------|    (x2)
A --0-------------------------0-----------------------------|
E ----------------------------------------------------------|

-Verse 1-

e ----------------------------------------------------------|
B ----------------------------------------------------------|
G --2-----2-----2------2------2-----2-----2------2----------|
D --2--2-----2-----2------2---3--3-----3-----3-------3------|    (x4)
A --0-------------------------0-----------------------------|
E ----------------------------------------------------------|

-Prechorus-

e -----------------------------------------------------------|
B -----------------------------------------------------------|
G --0-----0-----0----0--------0-----0-----0-----0------------|
D --0--0-----0----0-----0-----2--2-----2-----2-----0---------|
A ----------------------------3------------------------------|
E --3--------------------------------------------------------|


e -----------------------------------------------------------|
B -----------------------------------------------------------|
G --2-----2-----2------2-------0-----0-----0------0----------|
D --3--3-----3-----3-------3---0--0-----0-----0------0-------|
A --0--------------------------------------------------------|
E ------------------------------3----------------------------|

-Chorus-

e -----------------------------------------------------------|
B -----------------------------------------------------------|
G --0-----0-----0-----0------0-----0-----0-----0-------------|
D --2--2-----2-----2-----2---0--0-----0-----0-----0----------|
A --3--------------------------------------------------------|
E ----------------------------3------------------------------|


e ----------------------------------------------------------|
B ----------------------------------------------------------|
G --2-----2-----2------2------2-----2-----2------2----------|
D --2--2-----2-----2------2---3--3-----3-----3-------3------|
A --0-------------------------0-----------------------------|
E ----------------------------------------------------------|


e -----------------------------------------------------------|
B -----------------------------------------------------------|
G --0-----0-----0-----0------0-----0-----0-----0-------------|
D --2--2-----2-----2-----2---0--0-----0-----0-----0----------|
A --3--------------------------------------------------------|
E ----------------------------3------------------------------|


e ----------------------------------------------------------|
B ----------------------------------------------------------|
G --2-----2-----2------2------2-----2-----2------2----------|
D --2--2-----2-----2------2---3--3-----3-----3-------3------|
A --0-------------------------0-----------------------------|
E ----------------------------------------------------------|


e ----------------------------------------------------------|
B ----------------------------------------------------------|
G --0-----0-----0-----0------2-----2-----2-----2------------|
D --2--2-----2-----2-----2---3--3-----3-----3-----3---------|
A --3------------------------0------------------------------|
E ----------------------------------------------------------|

-Verse 2-

e ----------------------------------------------------------|
B ----------------------------------------------------------|
G --2-----2-----2------2------2-----2-----2------2----------|
D --2--2-----2-----2------2---3--3-----3-----3-------3------|    (x4)
A --0-------------------------0-----------------------------|
E ----------------------------------------------------------|

-Prechorus-

e -----------------------------------------------------------|
B -----------------------------------------------------------|
G --0-----0-----0----0--------0-----0-----0-----0------------|
D --0--0-----0----0-----0-----2--2-----2-----2-----0---------|
A ----------------------------3------------------------------|
E --3--------------------------------------------------------|


e -----------------------------------------------------------|
B -----------------------------------------------------------|
G --2-----2-----2------2-------0-----0-----0------0----------|
D --3--3-----3-----3-------3---0--0-----0-----0------0-------|
A --0--------------------------------------------------------|
E ------------------------------3----------------------------|


-Chorus-

e -----------------------------------------------------------|
B -----------------------------------------------------------|
G --0-----0-----0-----0------0-----0-----0-----0-------------|
D --2--2-----2-----2-----2---0--0-----0-----0-----0----------|
A --3--------------------------------------------------------|
E ----------------------------3------------------------------|


e ----------------------------------------------------------|
B ----------------------------------------------------------|
G --2-----2-----2------2------2-----2-----2------2----------|
D --2--2-----2-----2------2---3--3-----3-----3-------3------|
A --0-------------------------0-----------------------------|
E ----------------------------------------------------------|


e -----------------------------------------------------------|
B -----------------------------------------------------------|
G --0-----0-----0-----0------0-----0-----0-----0-------------|
D --2--2-----2-----2-----2---0--0-----0-----0-----0----------|
A --3--------------------------------------------------------|
E ----------------------------3------------------------------|


e ----------------------------------------------------------|
B ----------------------------------------------------------|
G --2-----2-----2------2------2-----2-----2------2----------|
D --2--2-----2-----2------2---3--3-----3-----3-------3------|
A --0-------------------------0-----------------------------|
E ----------------------------------------------------------|


e ------------------------------------------------------------|
B ------------------------------------------------------------|
G --0-----0-----0-----0------0-----0-----0-----0--------------|
D --2--2-----2-----2-----2---0--0-----0-----0-----0-----------|
A --3---------------------------------------------------------|
E ---------------------------3--------------------------------|

-Bridge-

e ------------------------------------------------------------|
B ------------------------------------------------------------|
G --2-----2-----2------2------0-----0-----0------0------------|
D --2--2-----2-----2------2---0--0-----0-----0-------0--------|
A --0---------------------------------------------------------|
E -----------------------------3------------------------------|


e ----------------------------------------------------------|
B ----------------------------------------------------------|
G --2-----2-----2------2------2-----2-----2------2----------|
D --2--2-----2-----2------2---3--3-----3-----3-------3------|
A --0-------------------------0-----------------------------|
E ----------------------------------------------------------|


e ------------------------------------------------------------|
B ------------------------------------------------------------|
G --2-----2-----2------2------0-----0-----0------0------------|
D --2--2-----2-----2------2---0--0-----0-----0-------0--------|
A --0---------------------------------------------------------|
E -----------------------------3------------------------------|


e ------------------------------           -------|
B ------------------------------           -------|
G --2-----2-----2------2--------           --0----|
D --3--3-----3-----3-------3---- (x2)   --0-------|
A --0---------------------------            ------|
E ------------------------------            --3---|

-Chorus-

e -----------------------------------------------------------|
B -----------------------------------------------------------|
G --0-----0-----0-----0------0-----0-----0-----0-------------|
D --2--2-----2-----2-----2---0--0-----0-----0-----0----------|
A --3--------------------------------------------------------|
E ----------------------------3------------------------------|


e ----------------------------------------------------------|
B ----------------------------------------------------------|
G --2-----2-----2------2------2-----2-----2------2----------|
D --2--2-----2-----2------2---3--3-----3-----3-------3------|
A --0-------------------------0-----------------------------|
E ----------------------------------------------------------|


e -----------------------------------------------------------|
B -----------------------------------------------------------|
G --0-----0-----0-----0------0-----0-----0-----0-------------|
D --2--2-----2-----2-----2---0--0-----0-----0-----0----------|
A --3--------------------------------------------------------|
E ----------------------------3------------------------------|


e ----------------------------------------------------------|
B ----------------------------------------------------------|
G --2-----2-----2------2------2-----2-----2------2----------|
D --2--2-----2-----2------2---3--3-----3-----3-------3------|
A --0-------------------------0-----------------------------|
E ----------------------------------------------------------|


e ----
B ----
G --0-
D --2-    (let ring)
A --3-
E ----
            
Submit corrections

comments powered by Disqus
↑ Back to top | A Fine Frenzy Tabs for Almost Lover. Lyrics for acoustic guitar and electric guitar. 1 Tablatures and chords are parodies/interpretations of the original songs. You may use it for private study, scholarship, research or language learning purposes only