» » »

Almost Lover Tabs (ver.1)

Artists:  A B C D E F G H I J K L M N O P Q R S T U V W X Y Z # 

Almost Lover Tabs (ver.1)

A Fine Frenzy
Rating:
2/5 (1 vote)

Hard to play? Try these video lessons and learn fast.
                okay so i'm tabbing this song in the drop D version that i made. i don't think a
drop D version has ever been made before? but it sounds pretty good so yeahhh check it out.

The chords used in the song are in chromatic order:
  Am   B5?  C     Dm   Em   F    G
|-----------------5-----------------|
|-10---12---13----3----5----6----8--|
|-9----11---12----2----4----5----7--|
|-7----9----10----0----2----3----5--|
|-7----9----10----0----2----3----5--|
|-7----9----10----0----2----3----5--|

INTRO:
okay so now i know this isn't the exact piano part, but it sounds kinda like it but it's 
cool too.

|---------------------------------|
|-5-------------------------------|
|---2---4---5---5-5---------------| x2
|-----2---2---2-----7---7---7---7-|
|---------------------8---8---8---|
|---------------------------------|

VERSE 1:
Okay so I just tabbed out the lyrics and some piano with a clean tone. quite beautiful.

|-------------------------|
|-17-15-------17-15-------|
|-------17-14-------17-14-|
|-------------------------|
|-------------------------|
|-------------------------|

|-------------------------|
|-17-15----15----15-------|
|-------17----17----14-17-|
|-------------------------|
|-------------------------|
|-------------------------|
  Images.....  (piano)
|--------------------------|
|-17-15--------5-5---------|
|-------17-14------7---7---|
|--------------------8---8-|
|--------------------------|
|--------------------------|

           Am
Your fingertips across my skin
               F
The palm trees swaying in the wind
   Am            F
Images

|-------------------------|
|-17-15-------17-15-------|
|-------17-14-------17-14-|
|-------------------------|
|-------------------------|
|-------------------------|

|-------------------------|
|-17-15----15----15-17----|
|-------17----17-------17-|
|-------------------------|
|-------------------------|
|-------------------------|
  Clever trick (piano)
|--------------------------|
|-17-15--------5-5---------|
|-------17-14~-----7---7---|
|--------------------8---8-|
|--------------------------|
|--------------------------|

             Am
You sang me Spanish lullabies
             F
The sweetest sadness in your eyes
         Am          F
Clever trick


PRECHORUS:
|--------------------------15~-----------|
|----15~-17~-15-17~-15-17~-----17-17-17~-|
|-17-------------------------------------|
|----------------------------------------|
|----------------------------------------|
|----------------------------------------|

|----------------------------|
|-----15----15----15~--------|
|-17~----17----17-----14-12~-|
|----------------------------|
|----------------------------|
|----------------------------|

       G                       C
Well I never want to see you unhappy
  Dm                                 G
I thought you'd want the same for me


CHORUS:
|-------------------------|
|-17-17-15----------------|
|----------17-17-12-14-17-|
|-------------------------|
|-------------------------|
|-------------------------|

|-----------15----------|
|-17-15~-15----17-15----|
|--------------------17-|
|-----------------------|
|-----------------------|
|-----------------------|

|----------------------------|
|-15-17-15----------15-------|
|----------17-14-17----17-14-|
|----------------------------|
|----------------------------|
|----------------------------|

|----------------------------|
|----15-------15----17-15----|
|-17----17-17----17-------17-|
|----------------------------|
|----------------------------|
|----------------------------|

|-------------------------|
|-17-17-15----------------|
|----------17-17-12-14-17-|
|-------------------------|
|-------------------------|
|-------------------------|

|-----------15----------|
|-17-15~-15----17-15----|
|--------------------17-|
|-----------------------|
|-----------------------|
|-----------------------|

|----------------------------|
|-15-15-17-15-------15-------|
|-------------17-17----17-14-|
|----------------------------|
|----------------------------|
|----------------------------|

|-----------------------------------|
|-----15----15~----15-----17-15-----|
|-17~----17-----17----17~-------17~-|
|-----------------------------------|
|-----------------------------------|
|-----------------------------------|

C
Goodbye, my almost lover
G
Goodbye, my hopeless dream
Dm
I'm trying not to think about you
F
Can't you just let me be?
C
So long, my luckless romance
G
My back is turned on you
Dm
I should've known you'd bring me heartache
F                    C
Almost lovers always do

VERSE 2:
|-------------------------|
|-17-15-------17-15-------|
|-------17-14-------17-14-|
|-------------------------|
|-------------------------|
|-------------------------|

|----------------------------|
|-17-15----15-15-16p15-------|
|-------17-------------17-17-|
|----------------------------|
|----------------------------|
|----------------------------|

|---------------------------------------------------------------|
|-17~-17-17-15----15--------------------------------------------|
|--------------17----17-16-17-16~-14-16-17-14~-16-17-14~-16-17~-|
|---------------------------------------------------------------|
|---------------------------------------------------------------|
|---------------------------------------------------------------|

           Am
We walked along a crowded street
            F
You took my hand and danced with me
   Am            F
Images

|----------------------------|
|----17-15-------17-15-------|
|-17-------17-14-------17-14-|
|----------------------------|
|----------------------------|
|----------------------------|

|----15-15-15----17-15-15----17-15-------------15~----------|
|-------------17----------17-------17-15-17-17-----17-15-17-|
|-14--------------------------------------------------------|
|-----------------------------------------------------------|
|-----------------------------------------------------------|
|-----------------------------------------------------------|
  No...
|-20-19-17-19-17-15~-|
|--------------------|
|--------------------|
|--------------------|
|--------------------|
|--------------------|

             Am
And when you left you kissed my lips
                      F                         Am
You told me you would never ever forget these images
      F
No...


PRECHORUS:
|--------------------------15~-----------|
|----15~-17~-15-17~-15-17~-----17-17-17~-|
|-17-------------------------------------|
|----------------------------------------|
|----------------------------------------|
|----------------------------------------|

|------------------------15----------------|
|-----15----15----15~-15----17h18p17-15h17-|
|-17~----17----17--------------------------|
|------------------------------------------|
|------------------------------------------|
|------------------------------------------|

     G                         C
Well I never want to see you unhappy
  Dm                              G
I thought you'd want the same for me


CHORUS:
|-------------------------|
|-17-17-15----------------|
|----------17-17-12-14-17-|
|-------------------------|
|-------------------------|
|-------------------------|

|--------------15----------|
|-17-15-----------17-15----|
|-------17~-17----------17-|
|--------------------------|
|--------------------------|
|--------------------------|

|-----------------------------|
|-15-17~-15----------15-------|
|-----------17-14-17----17-14-|
|-----------------------------|
|-----------------------------|
|-----------------------------|

|-----------------------------|
|-----15-------15----17-15----|
|-17~----17-17----17-------17-|
|-----------------------------|
|-----------------------------|
|-----------------------------|

|----------------------------|
|-17-17-15-------------------|
|----------17-17-12-14-17-14-|
|----------------------------|
|----------------------------|
|----------------------------|

|-----------15-----------|
|-17-15~-15----17-15-----|
|--------------------17~-|
|------------------------|
|------------------------|
|------------------------|

|----------------------------|
|-15-15-17-15-------15-------|
|-------------17-17----17-14-|
|----------------------------|
|----------------------------|
|----------------------------|

|-----------------------------------|
|-----15----15~----15-----17-15-----|
|-17~----17-----17----17~-------17~-|
|-----------------------------------|
|-----------------------------------|
|-----------------------------------|

C
Goodbye, my almost lover
G
Goodbye, my hopeless dream
Dm
I'm trying not to think about you
F
Can't you just let me be?
C
So long, my luckless romance
G
My back is turned on you
Dm
I should've known you'd bring me heartache
F                    C      C  B5
Almost lovers always do


BRIDGE:
not sure if this is correct but play around with it.
|-15-17-17-17p15-17-17-15-17-15-|
|-------------------------------|
|-------------------------------|
|-------------------------------|
|-------------------------------|
|-------------------------------|

|----15-15-15-------------15b17-|
|-17----------15-17-17p15-------|
|-------------------------------|
|-------------------------------|
|-------------------------------|
|-------------------------------|

|-15-17-17-17p15-17-17-15-17-15-|
|-------------------------------|
|-------------------------------|
|-------------------------------|
|-------------------------------|
|-------------------------------|

|-15-15~-15-------------|
|-----------17-17-15b17-|
|-----------------------|
|-----------------------|
|-----------------------|
|-----------------------|

|-17-17~-17p15-17-17p15-17-15-|
|-----------------------------|
|-----------------------------|
|-----------------------------|
|-----------------------------|
|-----------------------------|

|----15-15----15-15-20~-------|
|-17-------17-----------------|
|-----------------------17-14-|
|-----------------------------|
|-----------------------------|
|-----------------------------|

|--------------------------------------------------15--------------|
|----17~-15-------17-15~----15-15-15-17-15~----15~----17-18p17-15~-|
|-14--------17-14--------17-----------------17---------------------|
|------------------------------------------------------------------|
|------------------------------------------------------------------|
|------------------------------------------------------------------|

Am                   G
I cannot go to the ocean
                              F
I cannot drive the streets at night
                           Em
I cannot wake up in the morning
                        Am
Without you on my mind
                           G
So you're gone and I'm haunted
                       F
And I bet you are just fine
                      Dm
Did I make it that easy
                               G
To walk right in and out of my life?


CHORUS:
|--------------------------|
|-17-17-15-----------------|
|-----------17-17-12-14-17-|
|--------------------------|
|--------------------------|
|--------------------------|

|-----------15-----------|
|-17-15~-15----17-15-----|
|--------------------17~-|
|------------------------|
|------------------------|
|------------------------|

|----------------------------|
|-15-17-15----------15----15-|
|----------17-14-17----17----|
|----------------------------|
|----------------------------|
|----------------------------|

|-------------15-17-15~-|
|-----------------------|
|-17-14-17-17-----------|
|-----------------------|
|-----------------------|
|-----------------------|

|----------------------------|
|-17-17-15-------------------|
|----------17-17-12-14-17-14-|
|----------------------------|
|----------------------------|
|----------------------------|

|-----------15-17-15-17-15-|
|-17-15~-15----------------|
|--------------------------|
|--------------------------|
|--------------------------|
|--------------------------|

|----------------------------|
|-15-15-17-15-------15-------|
|-------------17-17----17-14-|
|----------------------------|
|----------------------------|
|----------------------------|

|-------------------------------------------|
|-----15----15~----15-----17~-15----15------|
|-17~----17-----17----17~--------17----17~~-|
|-------------------------------------------|
|-------------------------------------------|
|-------------------------------------------|

C
Goodbye, my almost lover
G
Goodbye, my hopeless dream
Dm
I'm trying not to think about you
F
Can't you just let me be?
C
So long, my luckless romance
G
My back is turned on you
Dm
I should've known you'd bring me heartache
F
Almost lovers always...
C
Do
            
Hard to play? Try these video lessons and learn fast. | Correct




comments powered by Disqus
↑ Back to top | Tablatures and chords are parodies/interpretations of the original songs. You may use it for private study, scholarship, research or language learning purposes only