» » »

Afi, This Secret Ninja Tabs (ver.1)

Artists:  A B C D E F G H I J K L M N O P Q R S T U V W X Y Z # 

This Secret Ninja Tabs (ver.1)

Afi Tabs
 Rating:
4/5 (4 votes)
This Secret Ninja lessons Tabs too difficult? Try these video lessons and learn fast
                //This Secret Ninja
By- AFI (old)

All by ear.


Tune your guitar to Drop-d (drop low-E string to an octave below D string)

/Intro/Verse1--x3
|-------------------------------------||----------------------------|
|-------------------------------------||----------------------------|
|---------12--------------------------||---------12-----------------|
|-9-9-9-9-12-12-12-12-12-12-12-12-12--||-9-9-9-9-12-12-12-12-5-5-7--|
|-9-9-9-9-10-12-12-12-12-12-12-12-12--||-9-9-9-9-10-12-12-12-5-5-7--|
|-9-9-9-9----12-12-12-12-12-12-12-12--||-9-9-9-9----12-12-12-5-5-7--|

|---------------------------------------------------------|
|---------------------------------------------------------|
|---------12-------------------9-10-10-10-10-10-10-10-10--|
|-9-9-9-9-12-12-12-12-12-12-12-9-10-10-10-10-10-10-10-10--|
|-9-9-9-9-10-12-12-12-12-12-12-7--9--9--9--9--9--9--9--9--|
|-9-9-9-9----12-12-12-12-12-12----------------------------|


/Chorus--x2
|------------------------------------------------------|
|------------------------------------------------------|
|------------------------------------------------------|
|-9-9-9-9-9-7-7-7-7-7-7-7-7-9-9-12-12-5-5-5-5-5-5-5-5--|
|-9-9-9-9-9-7-7-7-7-7-7-7-7-9-9-12-12-5-5-5-5-5-5-5-5--|
|-9-9-9-9-9-7-7-7-7-7-7-7-7-9-9-12-12-5-5-5-5-5-5-5-5--|

|------------------------------------------------------|
|------------------------------------------------------|
|------------------------------------------------------|
|-9-9-9-9-9-7-7-7-7-7-7-7-7-12-12-7-7-5-5-5-5-5-5-5-5--|
|-9-9-9-9-9-7-7-7-7-7-7-7-7-12-12-7-7-5-5-5-5-5-5-5-5--|
|-9-9-9-9-9-7-7-7-7-7-7-7-7-12-12-7-7-5-5-5-5-5-5-5-5--|


/Verse1--x2
|-------------------------------------||----------------------------|
|-------------------------------------||----------------------------|
|---------12--------------------------||---------12-----------------|
|-9-9-9-9-12-12-12-12-12-12-12-12-12--||-9-9-9-9-12-12-12-12-5-5-7--|
|-9-9-9-9-10-12-12-12-12-12-12-12-12--||-9-9-9-9-10-12-12-12-5-5-7--|
|-9-9-9-9----12-12-12-12-12-12-12-12--||-9-9-9-9----12-12-12-5-5-7--|

|---------------------------------------------------------|
|---------------------------------------------------------|
|---------12-------------------9-10-10-10-10-10-10-10-10--|
|-9-9-9-9-12-12-12-12-12-12-12-9-10-10-10-10-10-10-10-10--|
|-9-9-9-9-10-12-12-12-12-12-12-7--9--9--9--9--9--9--9--9--|
|-9-9-9-9----12-12-12-12-12-12----------------------------|


/Chorus--x2
|------------------------------------------------------|
|------------------------------------------------------|
|------------------------------------------------------|
|-9-9-9-9-9-7-7-7-7-7-7-7-7-9-9-12-12-5-5-5-5-5-5-5-5--|
|-9-9-9-9-9-7-7-7-7-7-7-7-7-9-9-12-12-5-5-5-5-5-5-5-5--|
|-9-9-9-9-9-7-7-7-7-7-7-7-7-9-9-12-12-5-5-5-5-5-5-5-5--|

|------------------------------------------------------|
|------------------------------------------------------|
|------------------------------------------------------|
|-9-9-9-9-9-7-7-7-7-7-7-7-7-12-12-7-7-5-5-5-5-5-5-5-5--|
|-9-9-9-9-9-7-7-7-7-7-7-7-7-12-12-7-7-5-5-5-5-5-5-5-5--|
|-9-9-9-9-9-7-7-7-7-7-7-7-7-12-12-7-7-5-5-5-5-5-5-5-5--|


/Bridge--x1
|------------------------------------------------------|
|------------------------------------------------------|
|------------------------------------------------------|
|-9-9-9-9-9-5-5-5-5-5-5-5-5-7-7-7-7-7-2-2-2-2-2-2-2-2--|
|-9-9-9-9-9-5-5-5-5-5-5-5-5-7-7-7-7-7-2-2-2-2-2-2-2-2--|
|-9-9-9-9-9-5-5-5-5-5-5-5-5-7-7-7-7-7-2-2-2-2-2-2-2-2--|

|------------------------------------------------------|
|------------------------------------------------------|
|------------------------------------------------------|
|-9-9-9-9-9-5-5-5-5-5-5-5-5-7-7-7-7-7-4-4-4-4-4-4-4-4--|
|-9-9-9-9-9-5-5-5-5-5-5-5-5-7-7-7-7-7-4-4-4-4-4-4-4-4--|
|-9-9-9-9-9-5-5-5-5-5-5-5-5-7-7-7-7-7-4-4-4-4-4-4-4-4--|


/Verse1--x2
|-------------------------------------||----------------------------|
|-------------------------------------||----------------------------|
|---------12--------------------------||---------12-----------------|
|-9-9-9-9-12-12-12-12-12-12-12-12-12--||-9-9-9-9-12-12-12-12-5-5-7--|
|-9-9-9-9-10-12-12-12-12-12-12-12-12--||-9-9-9-9-10-12-12-12-5-5-7--|
|-9-9-9-9----12-12-12-12-12-12-12-12--||-9-9-9-9----12-12-12-5-5-7--|

|---------------------------------------------------------|
|---------------------------------------------------------|
|---------12-------------------9-10-10-10-10-10-10-10-10--|
|-9-9-9-9-12-12-12-12-12-12-12-9-10-10-10-10-10-10-10-10--|
|-9-9-9-9-10-12-12-12-12-12-12-7--9--9--9--9--9--9--9--9--|
|-9-9-9-9----12-12-12-12-12-12----------------------------|


/Chorus--x2
|------------------------------------------------------|
|------------------------------------------------------|
|------------------------------------------------------|
|-9-9-9-9-9-7-7-7-7-7-7-7-7-9-9-12-12-5-5-5-5-5-5-5-5--|
|-9-9-9-9-9-7-7-7-7-7-7-7-7-9-9-12-12-5-5-5-5-5-5-5-5--|
|-9-9-9-9-9-7-7-7-7-7-7-7-7-9-9-12-12-5-5-5-5-5-5-5-5--|

|------------------------------------------------------|
|------------------------------------------------------|
|------------------------------------------------------|
|-9-9-9-9-9-7-7-7-7-7-7-7-7------12-----7------5-------|
|-9-9-9-9-9-7-7-7-7-7-7-7-7------12-----7------5-------|
|-9-9-9-9-9-7-7-7-7-7-7-7-7------12-----7------5-------|

Most of the hits on the ends of the chord strums are transfer notes, so listen to the song to get the rhythm.

Hope you think the tab is good... I do. heheh
            
Submit corrections

comments powered by Disqus
↑ Back to top | Afi Tabs for This Secret Ninja. Lyrics for acoustic guitar and electric guitar. Tablatures and chords are parodies/interpretations of the original songs. You may use it for private study, scholarship, research or language learning purposes only