» » »

Afi, This Secret Ninja Tabs (ver.3)

Artists:  A B C D E F G H I J K L M N O P Q R S T U V W X Y Z # 

This Secret Ninja Tabs (ver.3)

Afi Tabs
 Rating:
4/5 (4 votes)
This Secret Ninja lessons Tabs too difficult? Try these video lessons and learn fast
1
                			            THIS SECRET NINJA - AFI

Verse:
e-|-------------------------------------------------------------------------
B-|-------------------------------------------------------------------------
G-|-------------------------------------------------------------------------
D-|-------12-------------------12-------------------12-------------11-11-11-
A-|-9-9-9-10-12-12-12-12-9-9-9-10-12-12-5-7-9-9-9-10-12-12-12-12----9--9--9-
E-|-7-7-7----10-10-10-10-7-7-7----10-10-3-5-7-7-7----10-10-10-10------------

e-|----------------|
B-|----------------|
G-|----------------|
D-|-11-11-11-11-11-|
A-|--9--9--9--9--9-|
E-|----------------|

Chorus:
e-|-----------------------------------------------------------------|
B-|-----------------------------------------------------------------|
G-|-----------------------------------------------------------------|
D-|---------------------7-7-------------------------7-7-------------|
A-|-9-9-9-9-7-7-7-7-9-9-5-5-5-5-5-5-9-9-9-9-7-7-7-7-5-5-7-7-5-5-5-5-|
E-|-7-7-7-7-5-5-5-5-7-7-----3-3-3-3-7-7-7-7-5-5-5-5-----5-5-3-3-3-3-|

Bridge:
e-|-----------------------------------------------------------------|
B-|-----------------------------------------------------------------|
G-|-----------------------------------------------------------------|
D-|-------------------------9-9-9-9---------------------------------|
A-|-9-9-9-9-5-5-5-5-7-7-7-7-7-7-7-7-9-9-9-9-5-5-5-5-7-7-7-7-4-4-4-4-|
E-|-7-7-7-7-3-3-3-3-5-5-5-5---------7-7-7-7-3-3-3-3-5-5-5-5-2-2-2-2-|
            
Submit corrections

comments powered by Disqus
↑ Back to top | Afi Tabs for This Secret Ninja. Lyrics for acoustic guitar and electric guitar. 1 Tablatures and chords are parodies/interpretations of the original songs. You may use it for private study, scholarship, research or language learning purposes only