» » »

Afi, Six To Eight Bass tabs (ver.1)

Artists:  A B C D E F G H I J K L M N O P Q R S T U V W X Y Z # 

Six To Eight Bass tabs (ver.1)

Afi Tabs
 Rating:
4/5 (4 votes)
Six To Eight  lessons Tabs too difficult? Try these video lessons and learn fast
                (1)
Intro:
2x       2x       1x
--------|--------|--------
-5h7----|--------|-5h7----
-----0--|-0-3-5--|-----0--
--------|--------|--------

Verse:
                              2 time only
-----------------------------|------------------------------
-------------20--------------|-----------20------------20-0-
-0-0-23-3333---30----5-55555-|-0-0-23-333---30----5555---3--
------------------3-3--------|-----------------3-3----------

Chorus:
-------------------------------
---------------------0h2-------
-33333-------------------------
----------3-20-0000------00000-

Bridge:
----------------------------------------------------
----------------------------------------------------
-000000000000-------------333333333333--------------
--------------333333333333-------------000000000000-
            
Submit corrections

comments powered by Disqus
↑ Back to top | Afi Bass for Six To Eight. Lyrics for acoustic guitar and electric guitar. Tablatures and chords are parodies/interpretations of the original songs. You may use it for private study, scholarship, research or language learning purposes only