» » »

Afi, Six To Eight Bass tabs (ver.2)

Artists:  A B C D E F G H I J K L M N O P Q R S T U V W X Y Z # 

Six To Eight Bass tabs (ver.2)

Afi Tabs
Rating:
0/5 (0 votes)
Six To Eight  lessons Tabs too difficult? Try these video lessons and learn fast
                (2)
|-------- x2 |---------- x2 |------ 
|-6h7---- |-------0r- |-6h7-- 
|----0--- |-0r-3r---- |----0- 
|-------- |------------ |------ 

verse 
|------------------------------------------ x4 
|-------------2-0-----------------2-0----0- 
|-0-0-1-2-3-3-----3-0-----3-4-5-5------3--- 
|---------------------3-3------------------ 

chorus 
|------------------------------------- x4 
|---------------------0h2---------0h2- 
|-3-3-3-3----------------------------- 
|---------3-2--0-0-0-0----0-0-0-0----- 

verse 
chorus 

breakdown 
|---------- x4 
|-------0r- 
|-0r-3r---- 
|---------- 

chorus 2 
|------------------------------------------- x3 
|---------------------0h2---------0h2------- 
|-3-3-3-3----------------------------------- 
|---------3-2--0-0-0-0----0-0-0-0----------- 

|-------- 
|-------- 
|-3-3-3-3 
|-------- 

solo 
|--------------------------------------------------------- 
|--------------------------------------------------------- 
|-----------------------0-3-3-3-3-3-3-3-3----------------- 
|-0-0-0-0-0-0-0-0-0-0-0-------------------3-3-3-3-3-3-3-3- 

|------------------------- x3 
|---------0h2---------0h2- 
|------------------------- 
|-0-0-0-0-----0-0-0-0----- 

outro 
|---------- 
|---------- 
|-3r------- 
|----3r-0r-
            

comments powered by Disqus
↑ Back to top | Afi Bass for Six To Eight. Lyrics for acoustic guitar and electric guitar. Tablatures and chords are parodies/interpretations of the original songs. You may use it for private study, scholarship, research or language learning purposes only