» » »

God Called In Sick Today Tabs (ver.3)

Artists:  A B C D E F G H I J K L M N O P Q R S T U V W X Y Z # 

God Called In Sick Today Tabs (ver.3)

Afi
Rating:
0/5 (0 votes)
Tabs too difficult? Try these video lessons and learn fast.
                ..F.P..

e|-------------------------------------------------------------------------- 
B|--------------------------------------------------------------------------
G|------3-----3------------2-----2------------2-----2------------3----3-----
D|--5-5---5-5---5-5----3-3---3-3---3-3----0-0---0-0---0-0----1-1--1-1---1-1-0
A|--------------------------------------------------------------------------
E|-------------------------------------------------------------------------- 

e|--------------------------------------------------------------------------- 
B|---------6-----------------------------------------------------------------
G|-----3-----3------------2-----2-------------2-3-2-------------3-----3------
D|-5-5---5-----5-5----3-3---3-3---3-3----0-3-------3-0-0----1-1---1-1---1-1-0 
A|---------------------------------------------------------------------------
E|---------------------------------------------------------------------------


e|---------------------------------------------------------------------------
B|---------------------------------------------------------------------------
G|---------------------------------------------------------------------------
D|--5-5-5-5-5-5-5-5--3-3-3-3-3-3-3-3--0-0-0-0-0-0-0-0--1-1-1-1-1-1-1-1-------
A|---------------------------------------------------------------------------
E|---------------------------------------------------------------------------
  Pm………………………………………………………………………………………………………………………………………………………………………………………………
e|---------------------------------------------------------------------------
B|---------------------------------------------------------------------------
G|--------------------------------------7-7-7/-----8-8-8---------------------
D|--5-5-5-5-5-5-5-5--3-3-3-3-3-3-3-3----7-7-7/-----8-8-8---------------------
A|--------------------------------------5-5-5/-----6-6-6---------------------
E|---------------------------------------------------------------------------
  Pm………………………………………………………… …………………….

Play this as many times as needed
e|---------------------------------------------------------------------------
B|---------------------------------------------------------------------------
G|--5—5-5----------------------3-3-3—---5-5-5----------------------5-5-5-----
D|--5—5-5----5-5-5----3-3-3----3-3-3—---5-5-5----5-5-5----3-3-3----5-5-5-----
A|--3-3-3----5-5-5----3-3-3----1-1-1—---3-3-3----5-5-5----3-3-3----3-3-3-----
E|-----------3-3-3----1-1-1----------------------3-3-3----1-1-1--------------

Play this as many times as needed
e|---------------------------------------------------------------------------
B|---------------------------------------------------------------------------
G|--7-7-7-7-7-7—---5-5-5-5-5-5---------------------------------the #’s in bold
D|--7-7-7-7-7-7—---5-5-5-5-5-5----7-7-7-7-7-7----8-8-8-8-8-8---strike hard!!!
A|--5-5-5-5-5-5—---3-3-3-3-3-3----7-7-7-7-7-7----8-8-8-8-8-8---the #’s in reg.
E|--------------------------------5-5-5-5-5-5----6-6-6-6-6-6-----palm mute---

:All you have to do now is repeat however many a times and                           
that’s all you have to do.  I’m pretty sure that this tab is perfect.           R.I.P Fletcher pederson
            
Tabs too difficult? Try these video lessons and learn fast.


comments powered by Disqus
↑ Back to top | Tablatures and chords are parodies/interpretations of the original songs. You may use it for private study, scholarship, research or language learning purposes only