» » »

Afi, God Called In Sick Today

Artists:  A B C D E F G H I J K L M N O P Q R S T U V W X Y Z # 

God Called In Sick Today Tabs

(ver. 1)
Afi Tabs
 Rating:
4/5 (4 votes)
    God Called In Sick Today lessons Tabs too difficult? Try these video lessons and learn fast

WWW.AZCHORDS.COM | Afi Tabs - God Called In Sick Today Tabs (ver. 1)


                PROPS GO TO: CoRiAnDeR

This is a good and easy song to play...

Here it goes...

Regular Tuning (EADGBe)

Intro:
e|---------------------------------------------------------------------------|
B|---------------------------------------------------------------------------|
G|------3-----3------------2-----2------------2-----2-----------2-----2------|
D|--5-5---5-5---5-5----3-3---3-3---3-3----0-0---0-0---0-0----1-1--1-1---1-1-0|
A|---------------------------------------------------------------------------|
E|---------------------------------------------------------------------------|

e|---------------------------------------------------------------------------|
B|---------6-----------------------------------------------------------------|
G|-----3-----3------------2-----2------------2-3-2--------------2-----2------|
D|-5-5---5-----5-5----3-3---3-3---3-3----0-3-------3-0-0----1-1---1-1---1-1-0|
A|---------------------------------------------------------------------------|
E|---------------------------------------------------------------------------|

1st Verse:
e|---------------------------------------------------------------------------|
B|---------------------------------------------------------------------------|
G|------3-----3------------2-----2------------2-----2-----------2-----2------|
D|--5-5---5-5---5-5----3-3---3-3---3-3----0-0---0-0---0-0----1-1--1-1---1-1-0|
A|---------------------------------------------------------------------------|
E|---------------------------------------------------------------------------|

e|---------------------------------------------------------------------------|
B|---------6-----------------------------------------------------------------|
G|-----3-----3------------2-----2------------2-3-2--------------2-----2------|
D|-5-5---5-----5-5----3-3---3-3---3-3----0-3-------3-0-0----1-1---1-1---1-1-0|
A|---------------------------------------------------------------------------|
E|---------------------------------------------------------------------------|

e|---------------------------------------------------------------------------|
B|---------------------------------------------------------------------------|
G|---------------------------------------------------------------------------|
D|--5-5-5-5-5-5-5-5--3-3-3-3-3-3-3-3--0-0-0-0-0-0-0-0--1-1-1-1-1-1-1-1-------|
A|--................................pm................................-------|
E|---------------------------------------------------------------------------|

e|---------------------------------------------------------------------------|
B|---------------------------------------------------------------------------|
G|--------------------------------------7-7-7-7-7-7-7----8-8-8-8-8-8---------|
D|--5-5-5-5-5-5-5-5--3-3-3-3-3-3-3-3----7-7-7-7-7-7-7----8-8-8-8-8-8---------|
A|--...............pm...............----5-5-5-5-5-5-5----6-6-6-6-6-6---------|
E|---------------------------------------------------------------------------|

Chorus: 
e|----------------------------------------------------------------|
B|----------------------------------------------------------------|
G|----------------------------------------------------------------|
D|--8--8-8-8--8-8--10-10--10-10-10-10--5--5-5-5--5-5--3-3--3-3-3-3|
A|--8--8-8-8--8-8--10-10--10-10-10-10--5--5-5-5--5-5--3-3--3-3-3-3|
E|--6--6-6-6--6-6---8--8---8--8--8--8--3--3-3-3--3-3--1-1--1-1-1-1|

e|---------------------------------------------------------------------|
B|---------------------------------------------------------------------|
G|---------------------------------------------------------------------|
D|--8--8-8-8--8-8--10-10--10-10-10-10--5--5-5-5--5-5--3-3--3-3-3-3---5-|
A|--8--8-8-8--8-8--10-10--10-10-10-10--5--5-5-5--5-5--3-3--3-3-3-3---5-|
E|--6--6-6-6--6-6---8--8---8--8--8--8--3--3-3-3--3-3--1-1--1-1-1-1---3-|


2nd Verse:
e|---------------------------------------------------------------------------|
B|---------------------------------------------------------------------------|
G|------3-----3------------2-----2------------2-----2-----------2-----2------|
D|--5-5---5-5---5-5----3-3---3-3---3-3----0-0---0-0---0-0----1-1--1-1---1-1-0|
A|--...................................pm....................................|
E|---------------------------------------------------------------------------|

e|---------------------------------------------------------------------------|
B|---------6-----------------------------------------------------------------|
G|-----3-----3------------2-----2------------2-3-2--------------2-----2------|
D|-5-5---5-----5-5----3-3---3-3---3-3----0-3-------3-0-0----1-1---1-1---1-1-0|
A|-..pm...-------.........pm..........--------------------........pm.........|
E|---------------------------------------------------------------------------|

e|-----------------------------------------------------------------|
B|-----------------------------------------------------------------|
G|-----------------------------------------------------------------|
D|-8--8--8--8---8--8----7-7-7-7--7-7---7-7-7-7--7-7---8-8-8-8--8-8-|
A|-10-10-10-10--10-10---8-8-8-8--8-8---5-5-5-5--5-5---6-6-6-6--6-6-|
E|-----------------------------------------------------------------|
P.M.***********        *********       ********       ********

e|------------------------------------------------------------------------|
B|------------------------------------------------------------------------|
G|------------------------------------------------------------------------|
D|-8--8--8--8---8--8----7-7-7-7--7-7---7-7-7-7--7-7-7-7---8-8-8-8-8-8-8-8-|
A|-10-10-10-10--10-10---8-8-8-8--8-8---5-5-5-5--5-5-5-5---6-6-6-6-6-6-6-6-|
E|------------------------------------------------------------------------|
P.M.**********          ********       ********             

Chorus:
e|----------------------------------------------------------------|
B|----------------------------------------------------------------|
G|----------------------------------------------------------------|
D|--8--8-8-8--8-8--10-10--10-10-10-10--5--5-5-5--5-5--3-3--3-3-3-3|
A|--8--8-8-8--8-8--10-10--10-10-10-10--5--5-5-5--5-5--3-3--3-3-3-3|
E|--6--6-6-6--6-6---8--8---8--8--8--8--3--3-3-3--3-3--1-1--1-1-1-1|

e|----------------------------------------------------------------|
B|----------------------------------------------------------------|
G|----------------------------------------------------------------|
D|--8--8-8-8--8-8--10-10--10-10-10-10--5--5-5-5--5-5--3-3--3-3-3-3|
A|--8--8-8-8--8-8--10-10--10-10-10-10--5--5-5-5--5-5--3-3--3-3-3-3|
E|--6--6-6-6--6-6---8--8---8--8--8--8--3--3-3-3--3-3--1-1--1-1-1-1|

e|----------------------------------------------------------------|
B|----------------------------------------------------------------|
G|----------------------------------------------------------------|
D|--8--8-8-8--8-8--10-10--10-10-10-10--5--5-5-5--5-5--3-3--3-3-3-3|
A|--8--8-8-8--8-8--10-10--10-10-10-10--5--5-5-5--5-5--3-3--3-3-3-3|
E|--6--6-6-6--6-6---8--8---8--8--8--8--3--3-3-3--3-3--1-1--1-1-1-1|

e|----------------------------------------------------------------|
B|----------------------------------------------------------------|
G|----------------------------------------------------------------|
D|--8--8-8-8--8-8--10-10--10-10-10-10--5--5-5-5--5-5--3-3--3-3-3-3|
A|--8--8-8-8--8-8--10-10--10-10-10-10--5--5-5-5--5-5--3-3--3-3-3-3|
E|--6--6-6-6--6-6---8--8---8--8--8--8--3--3-3-3--3-3--1-1--1-1-1-1|

Bridge: 
Play 4x
e|----------------------------------------------------------------------|
B|----------------------------------------------------------------------|
G|----------------------------------------------------------------------|
D|--12--12-12-12--12-12--10-10--10-10-10-10--7--7-7-7--7-7--8-8--8-8-8-8|
A|--12--12-12-12--12-12--10-10--10-10-10-10--7--7-7-7--7-7--8-8--8-8-8-8|
E|--10--10-10-10--10-10---8--8---8--8--8--8--5--5-5-5--5-5--6-6--6-6-6-6|

e|----------------------------------------------------|
B|----------------------------------------------------|
G|----------------------------------------------------|
D|--5---3-3-3--8---3-3-3--5--5-5-5-5--5-5-5-5--5-5-5-5|
A|--5---3-3-3--8---3-3-3--5--5-5-5-5--5-5-5-5--5-5-5-5|
E|--3---1-1-1--6---1-1-1--3--3-3-3-3--3-3-3-3--3-3-3-3|
P.M.                                  *******

Chourus:
e|----------------------------------------------------------------|
B|----------------------------------------------------------------|
G|----------------------------------------------------------------|
D|--8--8-8-8--8-8--10-10--10-10-10-10--5--5-5-5--5-5--3-3--3-3-3-3|
A|--8--8-8-8--8-8--10-10--10-10-10-10--5--5-5-5--5-5--3-3--3-3-3-3|
E|--6--6-6-6--6-6---8--8---8--8--8--8--3--3-3-3--3-3--1-1--1-1-1-1|

e|----------------------------------------------------------------|
B|----------------------------------------------------------------|
G|----------------------------------------------------------------|
D|--8--8-8-8--8-8--10-10--10-10-10-10--5--5-5-5--5-5--3-3--3-3-3-3|
A|--8--8-8-8--8-8--10-10--10-10-10-10--5--5-5-5--5-5--3-3--3-3-3-3|
E|--6--6-6-6--6-6---8--8---8--8--8--8--3--3-3-3--3-3--1-1--1-1-1-1|

e|----------------------------------------------------------------|
B|----------------------------------------------------------------|
G|----------------------------------------------------------------|
D|--8--8-8-8--8-8--10-10--10-10-10-10--5--5-5-5--5-5--3-3--3-3-3-3|
A|--8--8-8-8--8-8--10-10--10-10-10-10--5--5-5-5--5-5--3-3--3-3-3-3|
E|--6--6-6-6--6-6---8--8---8--8--8--8--3--3-3-3--3-3--1-1--1-1-1-1|

e|----------------------------------------------------------------|
B|----------------------------------------------------------------|
G|----------------------------------------------------------------|
D|--8--8-8-8--8-8--10-10--10-10-10-10--5--5-5-5--5-5--3-3--3-3-3-3|
A|--8--8-8-8--8-8--10-10--10-10-10-10--5--5-5-5--5-5--3-3--3-3-3-3|
E|--6--6-6-6--6-6---8--8---8--8--8--8--3--3-3-3--3-3--1-1--1-1-1-1|

e|--------------------------------------------------------------------------|
B|--------------------------------------------------------------------------|
G|--------------------------------------------------------------------------|
D|-8----3-3-3-3---5---------------------------------------------------------|
A|-8----3-3-3-3---5---------------------------------------------------------|
E|-6----1-1-1-1---3---------------------------------------------------------|

Let's admire the pattern forming. murderous filigree. i'm caught in the twising of the vine. go ascend with ivy, climbing. ignore and leave for me the headstone crumbling behind. (ohh oh) i can't help my laughter as she cries. (ohh oh), 
(ohh oh) my soul brings tears to angelic eyes. ohh oh
let's amend the classic story, close it so beautifully, i'll let animosity unwind. steal away the darkened
            
Submit corrections

↑ Back to top | Afi Tabs for God Called In Sick Today. Lyrics for acoustic guitar and electric guitar. Tablatures and chords are parodies/interpretations of the original songs. You may use it for private study, scholarship, research or language learning purposes only