>
 >
 >
Death Of Seasons 1

Death Of Seasons 1 Guitar Tabs

Afi - Death Of Seasons 1 chords, tabs, tablatures, lyrics

Guitar lessons | Add/correct | Request | Top 50 tabs Artists:  A B C D E F G H I J K L M N O P Q R S T U V W X Y Z 0-9

Death Of Seasons 1 Guitar Tabs – Afi

CD, Sheet music, Poster

Do you like Death Of Seasons 1? Share with your friends now
Bass TabsBass Tabs v2TabsTabs v2Tabs v3
*repeat as needed*
e----------------------------------------------------------------------
b----------------------------------------------------------------------
g----------------------------------------------------------------------
d----------------------------------------------------------------------
a-----4-6----7-6---6-4---4----------4----------------------------------
E---4------4-----4-----7---4-6-7--4---7--6-7-6--4-2--------------------


Muted: *its not just 2, its more like 3 strummed real fast
e----------------------------------------------------------------------
b----------------------------------------------------------------------
g----------------------------------------------------------------------
d--6-6--6-6--6-6---6-6-4-4---6-6--6-6--6-6-----------------------------
a--6-6--6-6--6-6---6-6-4-4---6-6--6-6--6-6-----------------------------
E--4-4--4-4--4-4---4-4-2-2---4-4--4-4--4-4-----------------------------
Of late, it's harder...  To leave this deadspace...

just the power chords...u do the strumming.
Repeat:
e----------------------------------------------------------------------
b----------------------------------------------------------------------
g----------------------------4-4-4-4-----------------------------------
d---6-6-6-6-6-6-6-6-6-6-6-6--4-4-4-4--4-4-4-4-4-4-4-4-4-4-4-4----------
a---6-6-6-6-6-6-6-6-6-6-6-6--2-2-2-2--4-4-4-4-4-4-4-4-4-4-4-4----------
E---4-4-4-4-4-4-4-4-4-4-4-4-----------2-2-2-2-2-2-2-2-2-2-2-2----------
Writhing with sickness...
Killed by the weakness...

e----------------------------------------------------------------------
b----------------------------------------------------------------------
g----------------------------------------------------------------------
d---6--6-6-6-4---------------------------------------------------------
a---6--6-6-6-4---------------------------------------------------------
E---4--4-4-4-2---------------------------------------------------------


e----------------------------------------------------------------------
b----------------------------------------------------------------------
g---4-4-4-4-4-4-4-4-------------------------------------9--9-8--6-4----
d---4-4-4-4-4-4-4-4--4-4-4-4-4-4-4-4--6-6-6-6-6-6-6-6---9--9-8--6-4----
a---2-2-2-2-2-2-2-2--4-4-4-4-4-4-4-4--6-6-6-6-6-6-6-6---7--7-6--4-2----
E--------------------2-2-2-2-2-2-2-2--4-4-4-4-4-4-4-4------------------
I watch the stars...


*not sure bout the ending of this line...*
e----------------------------------------------------------------------
b----------------------------------------------------------------------
g---4-4-4-4-4-4-4-4----------------------------------------------------
d---4-4-4-4-4-4-4-4--4-4-4-4-4-4-4-4--6-6-6-6-6-6-6-6------------------
a---2-2-2-2-2-2-2-2--4-4-4-4-4-4-4-4--6-6-6-6-6-6-6-6------------------
E--------------------2-2-2-2-2-2-2-2--4-4-4-4-4-4-4-4------------------
I held a fallen star ...


e----------------------------------------------------------------------
b----------------------------------------------------------------------
g---4-4-4-4-4-4-4-4-------------------------------------9--9-8--6-4----
d---4-4-4-4-4-4-4-4--4-4-4-4-4-4-4-4--6-6-6-6-6-6-6-6---9--9-8--6-4----
a---2-2-2-2-2-2-2-2--4-4-4-4-4-4-4-4--6-6-6-6-6-6-6-6---7--7-6--4-2----
E--------------------2-2-2-2-2-2-2-2--4-4-4-4-4-4-4-4------------------
I feel the fallen stars ...

e----------------------------------------------------------------------
b----------------------------------------------------------------------
g--4-4-4-4-4-4-4-4-3-3-3-3---------------------------------------------
d--4-4-4-4-4-4-4-4-3-3-3-3-6-6-6-6-4-4-4-4-4-4-4-2--4-4-4-4-4-4-4-2--6-
a--2-2-2-2-2-2-2-2-1-1-1-1-6-6-6-6-4-4-4-4-4-4-4-2--4-4-4-4-4-4-4-2--6-
E--------------------------4-4-4-4-2-2-2-2-2-2-2-0--2-2-2-2-2-2-2-0--4-
as they cry

Out there so quickly ...
Posthuman extinction ...
*wait till after cool techno part*
Repeat:
e----------------------------------------------------------------------
b----------------------------------------------------------------------
g----------------------------4-4-4-4-----------------------------------
d---6-6-6-6-6-6-6-6-6-6-6-6--4-4-4-4--4-4-4-4-4-4-4-4-4-4-4-4----------
a---6-6-6-6-6-6-6-6-6-6-6-6--2-2-2-2--4-4-4-4-4-4-4-4-4-4-4-4----------
E---4-4-4-4-4-4-4-4-4-4-4-4-----------2-2-2-2-2-2-2-2-2-2-2-2----------
Feeling surrounded...
All of this hatred ...


e----------------------------------------------------------------------
b----------------------------------------------------------------------
g----------------------------------------------------------------------
d---6--6-6-6-4---------------------------------------------------------
a---6--6-6-6-4---------------------------------------------------------
E---4--4-4-4-2---------------------------------------------------------
yeahhh!!

e----------------------------------------------------------------------
b----------------------------------------------------------------------
g---4-4-4-4-4-4-4-4-------------------------------------9--9-8--6-4----
d---4-4-4-4-4-4-4-4--4-4-4-4-4-4-4-4--6-6-6-6-6-6-6-6---9--9-8--6-4----
a---2-2-2-2-2-2-2-2--4-4-4-4-4-4-4-4--6-6-6-6-6-6-6-6---7--7-6--4-2----
E--------------------2-2-2-2-2-2-2-2--4-4-4-4-4-4-4-4------------------
I watch the stars ...

*not sure bout the ending of this line...*
e----------------------------------------------------------------------
b----------------------------------------------------------------------
g---4-4-4-4-4-4-4-4----------------------------------------------------
d---4-4-4-4-4-4-4-4--4-4-4-4-4-4-4-4--6-6-6-6-6-6-6-6------------------
a---2-2-2-2-2-2-2-2--4-4-4-4-4-4-4-4--6-6-6-6-6-6-6-6------------------
E--------------------2-2-2-2-2-2-2-2--4-4-4-4-4-4-4-4------------------
I held a fallen star ...

e----------------------------------------------------------------------
b----------------------------------------------------------------------
g---4-4-4-4-4-4-4-4-------------------------------------9--9-8--6-4----
d---4-4-4-4-4-4-4-4--4-4-4-4-4-4-4-4--6-6-6-6-6-6-6-6---9--9-8--6-4----
a---2-2-2-2-2-2-2-2--4-4-4-4-4-4-4-4--6-6-6-6-6-6-6-6---7--7-6--4-2----
E--------------------2-2-2-2-2-2-2-2--4-4-4-4-4-4-4-4------------------
I feel the fallen stars ...

e----------------------------------------------------------------------
b----------------------------------------------------------------------
g--4-4-4-4-4-4-4-4-3-3-3-3---------------------------------------------
d--4-4-4-4-4-4-4-4-3-3-3-3-6-6-6-6---4---------------------------------
a--2-2-2-2-2-2-2-2-1-1-1-1-6-6-6-6---4---------------------------------
E--------------------------4-4-4-4---2-----4--6--7--9------------------
as they cry

*reapeat as needed...* (u can change the second half ending if u want)
singer comes in after second time...
e----------------------------------------------------------------------
b----------------------------------------------------------------------
g----------------------------------------------------------------------
d--6-6-6-6--6-6-6-6--8-9---4-4-4-4--6-6-6-6--8/9-6---------------------
a--6-6-6-6--6-6-6-6--8-9---4-4-4-4--6-6-6-6--8/9-6---------------------
E--4-4-4-4--4-4-4-4--6-7---2-2-2-2--4-4-4-4--6/7-4---------------------
It won't be all right ...
Just watch the stars ...

e----------------------------------------------------------------------
b----------------------------------------------------------------------
g-------------------------------------------------8-8-8-9--6-6-6-8-----
d--2-2--9-9-9-11--8-8-8-9--2-2------9-----4--2-2--8-8-8-9--6-6-6-8-----
a--2-2--9-9-9-11--8-8-8-9--2-2----9-----4----2-2--6-6-6-7--4-4-4-6-----
E--0-0--7-7-7-9---6-6-6-7--0-0--7-----2------0-0-----------------------
And I disintegrate 'cause ...
And I hope ...

*sry i made it more simple than it is...*
e----------------------------------------------------------------------
b----------------------------------------------------------------------
g----------------------------------------------------------------------
d--2-2-----------------------------------------------------------------
a--2-2-----9-----------------------------------------------------------
E--0-0---7---2-2--0----------------------------------------------------
as stars go out ...





Comments


Popular Afi tabs & chords
Days Of The Phoenix 3 Bass Tabs
End Transmission 2 Bass Tabs
Your Name Here 2 Bass Tabs
At A Glance 4 Tabs
Bleed Black (Intro) Tabs
Dont Make Me Ill 2 Tabs
Halloween 1 Tabs
Kiss And Control 2 Tabs
Morningstar 6 Tabs
My Michelle Tabs


Song lyrics



↑ Back to top | Tablatures and chords are parodies/interpretations of the original songs. You may use it for private study, scholarship, research or language learning purposes only
© 2014 AZChords.com Contact us | Privacy policy | DMCA | Add/correct tabs | Request tabs | Top 50 tabs