>
 >
 >
Death Of Seasons 2

Death Of Seasons 2 Guitar Tabs

Afi - Death Of Seasons 2 chords, tabs, tablatures, lyrics

Guitar lessons | Add/correct | Request | Top 50 tabs Artists:  A B C D E F G H I J K L M N O P Q R S T U V W X Y Z 0-9

Death Of Seasons 2 Guitar Tabs – Afi

CD, Sheet music, Poster

Do you like Death Of Seasons 2? Share with your friends now
Bass TabsBass Tabs v2TabsTabs v2Tabs v3
*palm mute   /slide up   \slide down
   	This is my first tab so ***.


		INTRO   X1
   E---------------------------------------------------------------------------------
   B---------------------------------------------------------------------------------
   G---------------------------------------------------------------------------------
   D------7777------7777-----7777-----7777-----5555---7777---7777----7777------------
   A------7777------7777-----7777-----5555-----5555---7777---5555----5555------------
   E------5555------5555-----5555-----5555-----3333---5555---5555----5555------------
          ****      ****     ****     ****     ****   ****   ****    ****



                VERSE 1   X2     
   E---------------------------------------------------------------------------------
   B---------------------------------------------------------------------------------
   G-----------------------------------------------------------7777------------------
   D----3-2---2-3-2---2-3-2-2----------------------------------7777------------------
   A----0-0---0-0-0---0-0-0-0--3-3----0---3-2—-2-3-2—-2-3-2-2--5555------------------
   E---------------------------1-1----0---3-3—-3–3-3—-3-3-3-3------------------------
	

                PRE-CHORUS X1
   E---------------------------------------------------------------------------------
   B---------------------------------------------------------------------------------
   G---------------------------------------------------------------------------------
   D----10p9-----10p9—---10p9------7-7-7—555555--3----5555---------------------------
   A—-0-------0--------0---------0—7-7-7—555555--3----5555-----PICK SLIDE------------
   E-----------------------------0—5-5-5—333333--1----3333---------------------------



           CHORUS   X1

   E---------------------------------------------------------------------------------
   B---------------------------------------------------------------------------------
   G----55555555-----------------9------7-----10------9------------------------------
   D----55555555--55555555-------10-----9-----12-----10------------------------------
   A----33333333--55555555----0------0-----0------0----------------------------------
   E--------------33333333-----------------------------------------------------------




   E---------------------------------------------------------------------------------
   B---------------------------------------------------------------------------------
   G--------55555555-------------9999--7777--5555------------------------------------
   D--------55555555—5555555-----xxxx--xxxx--xxxx—5555-------------------------------
   A--------33333333—5555555-----7777--5555--3333—5555-------------------------------
   E-----------------3333333----------------------3333-------------------------------



   E---------------------------------------------------------------------------------
   B---------------------------------------------------------------------------------
   G----55555555----------------9------7----10-----9----55555555---------------------
   D----55555555–55555555-------10-----9----12----10----55555555---33333333---5~~----
   A----33333333-55555555----0-----0-----0------0-------33333333---33333333---5~~----
   E-------------33333333------------------------------------------11111111---3~~----



    TECHNO PART!!!



      VERSE AGAIN



                PRE-CHORUS X1
   E---------------------------------------------------------------------------------
   B---------------------------------------------------------------------------------
   G---------------------------------------------------------------------------------
   D-------10p9----13p12—---15p14-------7-7-7—555555–-3----5555----------------------
   A—--0--------0--------0----------0---7-7-7—555555--3----5555-----PICK SLIDE-------
   E--------------------------------0---5-5-5—333333–-1----3333----------------------


      CHORUS AGAIN!



      BRIDGE

   E---------------------------------------------------------------------------------
   B---------------------------------------------------------------------------------
   G---------------------------------------------------------------------------------
   D---------------------------------------------------------------------------------
   A---------------------------------------------------------------------------------
   E-------5~~/7~~/8~~/10~-----------------------------------------------------------


   E---------------------------------------------------------------------------------
   B---------------------------------------------------------------------------------
   G---------------------------------------------------------------------------------
   D—7-------7-------7-------7--------9----10--5-------5--------7-------7------9h10-7
   A—0--0-0--0--0-0--0--0-0--0--0-0---0--0--0—-0--0-0--0--0--0--0--0-0--0--0-0-0----0
   E----*-*-----*-*-----*-*-----*-*------*--------*-*-----*--*-----*-*-----*-*-------


   E---------------------------------------------------------------------------------
   B---------------------------------------------------------------------------------
   G----------------------------------------------------------------------------9----
   D—7-------7-------7-------7-------9----10--5-------5-------7-------7--------------
   A—0--0-0--0--0-0--0--0-0--0--0-0--0--0--0—-0--0-0--0--0-0--0--0-0--0--0-0-0-------
   E----*-*-----*-*-----*-*-----*-*-----*--------*-*-----*-*-----*-*-----*-*-*-------

   E---------------------------------------------------------------------------------
   B---------------------------------------------------------------------------------
   G------------------------------------------------------------------------------9--
   D—7-------7-------7-------7-------9----10--5-------5-------7-------7-------9h10--7
   A—0--0-0--0--0-0--0--0-0--0--0-0--0--0--0—-0--0-0--0--0-0--0--0-0--0--0-0--0-----0
   E----*-*-----*-*-----*-*-----*-*-----*--------*-*-----*-*-----*-*-----*-*---------

   E---------------------------------------------------------------------------------
   B---------------------------------------------------------------------------------
   G---------------------------------------------------------------------------------
   D—7-------7-------7-------7--------9----10--5-------5-------7-------7-------9h10-7
   A—0--0-0--0--0-0--0--0-0--0--0-0---0--0--0—-0--0-0--0--0-0--0--0-0--0--0-0--0----0
   E----*-*-----*-*-----*-*-----*-*------*--------*-*-----*-*-----*-*-----*-*--------


   E---------------------------------------------------------------------------------
   B---------------------------------------------------------------------------------
   G----------------------------------------------------------------------------9----
   D—7-------7-------7-------7--------9----10--5-------5-------7-------7-------------
   A—0--0-0--0--0-0--0--0-0--0--0-0---0--0--0—-0--0-0--0--0-0--0--0-0--0--0-0-0------
   E----*-*-----*-*-----*-*-----*-*------*--------*-*-----*-*-----*-*-----*-*-*------

   E---------------------------------------------------------------------------------
   B---------------------------------------------------------------------------------
   G---------------------------------------------------------------------------------
   D—7–7-7-7--7-7--7--9-9--9--9-9--10-10-10-10-10–-5--5--5-5--5--5-5-5--7-7--7-7-7---
   A—0-0-0-0--0-0--0--0-0--0--0-0---0--0--0--0--0--0--0--0-0--0--0-0--0-0-0--0-0-0---
   E---------------------------------------------------------------------------------


	END PART

   E---------------------------------------------------------------------------------
   B---------------------------------------------------------------------------------
   G---------------5/--7\–4/–5--------------5-55------------------9/–10\--7/–9------
   D—--33333333----x/--x\–x/–x—-33333333----5-55–-55555—33333333—-x/--x\--x/–x------
   A—--33333333----3/--5\–2/–3—-33333333----3-33--55555—33333333—-7/–-8\--5/–7------
   E—--11111111-----------------11111111----------33333—11111111--------------------




   E---------------------------------------------------------------------------------
   B---------------------------------------------------------------------------------
   G---------------------------------------------------------------------------------
   D---33333333/—5—---5~-------------\-3---------------------------------------------
   A-- 33333333/—5--------5~---------\-3---------------------------------------------
   E---11111111/-3-------------3~----\-1---------------------------------------------





Comments


Popular Afi tabs & chords
Cereal Wars Bass Tabs
On The Arrow 2 Chords
6 To 8 2 Tabs
Coin Return 1 Tabs
Morningstar 1 Tabs
Over Exposure Tabs
Prayer Position Intro Tabs
This Secret Ninja Tabs
This Time Imperfect 1 Tabs
Torch Song 2 Tabs


Song lyrics



↑ Back to top | Tablatures and chords are parodies/interpretations of the original songs. You may use it for private study, scholarship, research or language learning purposes only
© 2014 AZChords.com Contact us | Privacy policy | DMCA | Add/correct tabs | Request tabs | Top 50 tabs