» » »

Aerosmith, The Grind Tabs (ver.1)

Artists:  A B C D E F G H I J K L M N O P Q R S T U V W X Y Z # 

The Grind Tabs (ver.1)

Aerosmith Tabs
 Rating:
4/5 (4 votes)
The Grind lessons Tabs too difficult? Try these video lessons and learn fast
                The Grind (ver 3)
Honkin' on Bobo
Guitar(s) tab
Standard tuning (low to high-EeAaDdGgBbeE)
Intermediate


This is a great song for all you aerosmith lovers, the tab is great i love the harmonics
the melody well here yah go listen to the song, the try playing the song with my
i have looked into this song, and i know the song to it's 'T' if there are any questions 


gtr 1 - rhythm fig.
gtr 2 - lead fig.


Intro


gtr 1
(slight dist./overdrive)
|-------|--------------------------|--------------------------|
|-------|--------------------------|--------------------------|
|-------|--------------4-----------|--------------------------|
|-------|6---6--8---8--6---6--8b~~-|--------------1-----------|
|-------|4---4--4---4--4---4--4b---|3---3--5---5--3---3--5b~~-|
|-------|--------------------------|1---1--1---1--1---1--1b---|
 (drums)

gtr 2
(heavy clean)
|-------|--------------------------|--------------------------|
|-------|------14b-----------14b~~-|---------8b-------8-88h6~-|
|-------|--------------------------|------------10-10---------|
|-------|--------------------------|--------------------------|
|-------|--------------------------|--------------------------|
|-------|--------------------------|--------------------------|
 (drums)


~~~~~~~~~~~~~~~~~~~~~~~~~~~~~~~~~~~~~~~~~~~~~~~~~~~~~~~~~~~~~~~~~~~~~~~~~~~


gtr 1
(slight dist./overdrive)
|--------------------------|--------------------------|
|--------------------------|--------------------------|
|--------------4-----------|--------------------------|
|6---6--8---8--6---6--8b~~-|--------------1-----------|
|4---4--4---4--4---4--4b---|3---3--5---5--3---3--5b~~-|
|--------------------------|1---1--1---1--1---1--1b---|

gtr 2
(heavy clean)
|--------------------------|12h9-------9b/------------|
|------14b-----------14b~~-|--------------7--7--7h5b--|
|--------------------------|--------------------------|
|--------------------------|--------------------------|
|--------------------------|--------------------------|
|--------------------------|--------------------------|


~~~~~~~~~~~~~~~~~~~~~~~~~~~~~~~~~~~~~~~~~~~~~~~~~~~~~~~~~~~~~~~~~~~~~~~~~


Verse


gtr 1
(slight dist./overdrive)
|--------------------------|--------------------------|
|--------------------------|--------------------------|
|--------------4-----------|--------------------------|
|6---6--8---8--6---6--8b~~-|--------------1-----------|
|4---4--4---4--4---4--4b---|3---3--5---5--3---3--5b~~-|
|--------------------------|1---1--1---1--1---1--1b---|


gtr 2
(heavy clean/ovd.)
|--------------------------|--------------------------|
|5/-2--2~~-----------------|--------------------------|
|--------------------------|--------------------------|
|---------------------8b~~-|--------------------------|
|---------------------4b---|-------5-------------5b~~~|
|--------------------------|-------1-------------1b~~~|

                                         tHATS THE MAIN RIFF PLEASE RATE
            
Submit corrections

comments powered by Disqus
↑ Back to top | Aerosmith Tabs for The Grind. Lyrics for acoustic guitar and electric guitar. Tablatures and chords are parodies/interpretations of the original songs. You may use it for private study, scholarship, research or language learning purposes only