» » »

St John Bass tabs (ver.1)

Artists:  A B C D E F G H I J K L M N O P Q R S T U V W X Y Z # 

St John Bass tabs (ver.1)

Aerosmith
Rating:
0/5 (0 votes)
Tabs too difficult? Try these video lessons and learn fast.
                St John by Aerosmith

G-------------|
D-------------|
A-------------|
D-0--3-2-1-0--|

CHORUS
G--------|
D--------| play twice
A----5---|
D-4------|  

G--------------------------------------------------|
D--------------------------------------------------|
A-----7-7-----7-7-----5-5-----5-5-----4-4-----4-4--|
D-5-5-----5-5-----3-3-----3-3-----2-2-----2-2------|

Any corrections please comment
Thanks
            
Tabs too difficult? Try these video lessons and learn fast.


comments powered by Disqus
↑ Back to top | Tablatures and chords are parodies/interpretations of the original songs. You may use it for private study, scholarship, research or language learning purposes only