» » »

Aerosmith, St John Tabs (ver.1)

Artists:  A B C D E F G H I J K L M N O P Q R S T U V W X Y Z # 

St John Tabs (ver.1)

Aerosmith Tabs
 Rating:
4/5 (4 votes)
St John lessons Tabs too difficult? Try these video lessons and learn fast
1
                Aerosmith
Permanent Vacation

Drop D


e-----------------|
B-----------------|
G-----------------|
D-0---3--2--1--0--|
A-0---3--2--1--0--|
D-0---3--2--1--0--|


e-------------|
B----------2--|
G----------2--|
D-4--------0--|
A-4-----------|
D-4-----------|

e--------------|    e------------------------------------------------|
B--------------|    B------------------------------------------------|
G-16b-r-14b-r--| x4 G-18b-r-16b-r-18b-r-16b-r--19b-r-17b-r-19b-r-21b-|
D--------------|    D------------------------------------------------|
A--------------|    A------------------------------------------------|
D--------------|    D------------------------------------------------|

e-----10--------10-----------13-10-----------10----------------10-------|
B--------10--------10-13-----------10-13--------------------10----13----|
G-12b-------12b----------12b-------------12b----12b-r-10-12----------10-|
D-----------------------------------------------------------------------|
A-----------------------------------------------------------------------|
D-----------------------------------------------------------------------|


e-----------------------------------------------------------------------|
B-----------------------------------------------------------------------|
G-----------------------------------------------------------------------|
D-----------------------------------------------------------------------|
A-5-5-7-7--5-5-7-7--3-3-5-5--3-3-5-5--2-2-4-4--2-2-4-4--2-2-4-4--2-2-4--|
D-5-5-5-5--5-5-5-5--3-3-3-3--3-3-3-3--2-2-2-2--2-2-2-2--2-2-2-2--2-2-2--|


any corrections please comment
            
Submit corrections

comments powered by Disqus
↑ Back to top | Aerosmith Tabs for St John. Lyrics for acoustic guitar and electric guitar. 1 Tablatures and chords are parodies/interpretations of the original songs. You may use it for private study, scholarship, research or language learning purposes only