>
 >
Make It

Make It Bass Tabs

Aerosmith - Make It chords, tabs, tablatures, lyrics

Guitar lessons | Add/correct | Request | Top 50 tabs Artists:  A B C D E F G H I J K L M N O P Q R S T U V W X Y Z 0-9

Make It Bass Tabs – Aerosmith

CD, Sheet music, Poster

Do you like Make It? Share with your friends now
Bass TabsTabsTabs v2
Aerosmith
Make It
bass tab

  0.00         theme 1           4:4              t:150
|----------------|----------------|----------------|----------------|
|----------------|----------------|----------------|-------------^--|
|----------------|----------------|----------------|------------8-7-|
|----------------|----------------|----------------|----------------|

  0.07
|----------------|7---------------|----------^---^-|--^---^---^-----|
|0-------------0-|-------------^--|----8-8-668-668-|668-668-668--^--|
|------------5---|------------5-0-|----------------|------------8-7-|
|----------------|----------------|6---------------|----------------|

|----------------|7---------------|------^---^---^-|--^---^---^-----|
|0------------^--|-------------^--|----668-668-668-|668-668-668--^--|
|------------5-0-|------------5-0-|----------------|------------8-7-|
|----------------|----------------|6---------------|----------------|

|----------------|7---------------|------^---^---^-|--^---^---^-----|
|0------------^--|-------------^--|----668-668-668-|668-668-668-8-\-|
|------------5-0-|------------5-0-|----------------|----------------|
|----------------|----------------|6---------------|----------------|

|----------------|----------------|----------------|----------------|
|----------------|5---------------|----------------|7---7-6-5-4-3-2-|
|------5---5-----|------5---5---5-|------7---7---7-|----------------|
|3-=-3---3---3-=-|----3---3---3---|3-5-5---5---5---|----------------|

  0.35         verse 1
|----------------|----------------|----------------|----------------|
|0---------------|------------3-2-|0---------------|------------3-2-|
|----------------|----------------|----------------|----------------|
|----------------|----------------|----------------|----------------|

|----------------|----------------|----------------|------------------|
|0---------------|------------3-2-|0---------------|------------------| 9:8
|----------------|----------------|----------------|------------------|
|----------------|----------------|----------------|------------------|

  0.49         chorus 1
|----------------|----------------|----------------|----------------|
|----------------|----------------|----------------|----------------|
|5--=--------0-1----1-3-=-5-------|5--=--------0-1----1-3-=-5-------|
|----1-2-3-=-----|----------------|----1-2-3-=-----|----------------|
                                                                               7:8
|----------------|----------------|----------------|----------------|--------------|
|----------------|----------------|----------------|----------------|----------3-2-|
|5--=--------0-1----1-3-=-5-------|5--=--------0-1------------------|--------------|
|----1-2-3-=-----|----------------|----1-2-3-4-----|----------------|--------------|

  1.05         verse 2
|----------------|----------------|----------------|----------------|
|0---------------|------------3-2-|0---------------|------------3-2-|
|----------------|----------------|----------------|----------------|
|----------------|----------------|----------------|----------------|

|----------------|----------------|----------------|------------------|
|0---------------|------------3-2-|0---------------|------------------| 9:8
|----------------|----------------|----------------|------------------|
|----------------|----------------|----------------|------------------|

  1.19         chorus 2
|----------------|----------------|----------------|----------------|
|----------------|----------------|----------------|----------------|
|5-=---------0-1----1-3-=-5-------|5-=---------0-1----1-3-=-5-------|
|----1-2-3-=-----|----------------|----1-2-3-=-----|----------------|

|----------------|----------------|----------------|--------|
|----------------|----------------|----------------|--------| 4:8
|5-=---------0-1----1-3-=-5-------|5-=-------------|--------|
|----1-2-3-=-----|----------------|----1-2-3-=-----|--4-5-6-|

  1.32         bridge 1
|----------------|----------------|----------------|----------------|
|-----^----------|----------------|---------^-^--0-|=-0-3-=-0-=-----|
|--0-1-0-1-3-=---|-----------^--0-|1-1---1-0-1-3---|---------------^^
|--------------3----3-=-3-=-3-4---|----------------|--------------01|

|----------------|----------------|----------------|----------------|----------------|
|-----^----------|----------------|----------------|----------------|----------------|
|--0-1-0-1-3-=---|--------3---0-1----1-=-1-0-0-=---|----------------|----------------|
|3-------------3----3-=-3---3-----|--------------3-|=-3-=---3-3-3-3-|3-3-3-3-3-3-5---|

    1.47         solo
|----------------|----------------|----------------|----------------|
|-^-------^------|7-7-7-7-7-7-7---|-^-------^------|7-7-7-7-7-7-7---|
|3-0-0-0-5-0-0-0-|----------------|3-0-0-0-5-0-0-0-|----------------|
|----------------|----------------|----------------|----------------|

|----------------|----------------|----------------|----------------|
|-^-------^------|7-7-7-7-7-7-7---|---------^------|7-7-7-7-7-7-7---|
|3-0-0-0-5-0-0-0-|----------------|=---0-0-5-0-0-0-|----------------|
|----------------|----------------|----------------|--------:-.-:-.-|

  2.02
|----------------|----------------|----------------|----------------|
|----------------|--5555555555555-|7-.-7---7-7-----|----------------|
|----------------|----------------|------------0-0-|--.-0-.-0-.-0-0-|
|6-------------3------------------|----------------|----------------|

|----------------|----------------|----------------|----------------|
|----------------|--5-55555555555-|7---7---7-7\----|----------------|
|----------------|----------------|------------0-0-|0-.-0-.-0-.-0-0-|
|6-------------3------------------|----------------|----------------|

|----------------|----------------|----------------|----------------|
|----------------|--555555555//---|----------------|----------------|
|----------------|----------------|0-.-0-.-0-.-0-0-|0-.-0-0-0-0-0-0-|
|6-------------3------------------|----------------|----------------|

                                  |----------------|----------*-*-|
                                  |----------------|--------------| 7:8
                                  |----------------|--------------|
                                  |3-3-3-3-3-3-3---|--------------|
  2.26         theme 2
|*---------------|----------------|----------------|--:-----:-------|
|----------------|----------------|----------------|---.-----.------|
|----------------|----------------|----------------|----.-.---.-8-7-|
|----------------|----------------|----------------|----------------|

  2.33
|----------------|7---------------|----------^---^-|--^---^---^-----|
|0-----------0---|-------------^--|------8-668-668-|668-668-668--^--|
|--------------5-|------------5-0-|----------------|------------8-7-|
|----------------|----------------|6---------------|----------------|

|----------------|7---------------|----------^---^-|--^---^---^-----|
|0-----------0---|-------------^--|------8-668-668-|668-668-668-8---|
|--------------5-|------------5-0-|----------------|----------------|
|----------------|----------------|6---------------|----------------|

|----------------|----------------|----------------|----------------|
|----------------|5---------------|----------------|----7-6-5-4-3-2-|
|------5---5---5-|------5---5-5---|------7---7---7-|----------------|
|3-=-3---3---3---|----3---3-----3-|3-5-5---5---5---|5---------------|

  2.54         verse 3
|----------------|----------------|----------------|----------------|
|0---------------|------------3-2-|0---------------|------------3-2-|
|----------------|----------------|----------------|----------------|
|----------------|----------------|----------------|----------------|

|----------------|----------------|----------------|------------------|
|0---------------|------------3-2-|0---------------|------------------| 9:8
|----------------|----------------|----------------|3-----1-0---------|
|----------------|----------------|----------------|----------3-1-----|

  3.08         chorus 3
|----------------|----------------|----------------|----------------|
|----------------|----------------|----------------|----------------|
|5--=--------0-1----1-3-=-5-5-----|5--=--------0-1----1-3-=-5-------|
|----1-2-3-=-----|----------------|----1-2-3-=-----|----------------|

|----------------|----------------|----------------|--------|
|----------------|----------------|----------------|--------| 4:8
|5-=---------0-1----1-3-=-5-5-----|5-=-------------|--------|
|----1-2-3-=-----|----------------|----1-2-3-=-----|--4-5-6-|

  3.21         bridge 2
|----------------|----------------|----------------|----------------|
|-----^----------|----------------|-------^------0-|=-0-3---0-=-----|
|--0-1-0-1-3-=---|----3---1-0---0-|1---=-1-3-3-=---|-------------^-^|
|--------------3----3---3-----3---|----------------|------------0-1-|

|----------------|----------------|----------------|----------------|--------------|-
|-----^----------|----------------|----------------|----------------|----------3-2-|0-
|--.-1-0-1-3-=---|--------------0-|1-1-=-1-0-0-=---|----------------|--------------|---
|3-------------3----3-=-3-=-3-=---|--------------3-|=-3-3-3-3-3-3-3-|3-3-3-3-3-----|----  


standard tuning (EADG)

| /  slide up
| \  slide down

| .   incidental note (usually open string)
| ^   pre-struck note (hammer-on, pull-off)
| =   rest

display in fixed-width font
one space ("-") = 1/16 note

spaceyhippie
dudeman.net/jam





Comments


Popular Aerosmith tabs & chords
Draw The Line Bass Tabs
Falling In Love (Is Hard On The Knees) Bass Tabs
Crazy Chords
Home Tonight Chords
Angel's Eye Tabs
Crash Tabs
One Way Street Live Tabs
She On Fire Tabs
Walk This Way 1 Tabs
Woman Of The World Tabs


Song lyrics



↑ Back to top | Tablatures and chords are parodies/interpretations of the original songs. You may use it for private study, scholarship, research or language learning purposes only
© 2014 AZChords.com Contact us | Privacy policy | DMCA | Add/correct tabs | Request tabs | Top 50 tabs