» » »

Aerosmith, Make It Tabs (ver.3)

Artists:  A B C D E F G H I J K L M N O P Q R S T U V W X Y Z # 

Make It Tabs (ver.3)

Aerosmith Tabs
 Rating:
4/5 (4 votes)
Make It lessons Tabs too difficult? Try these video lessons and learn fast
                (Intro)
-------------------------------------------------------------------------------
                                  Make It - Aerosmith
-------------------------------------------------------------------------------
after hours and hours of finding out this tab i have finally got the intro and 1st and 
verse
Tuning:DADGBE

INTRO:    Woaahh Yea!!                      X3
e|------------------------------------------------------------------------------|
B|------------------------------------------------------------------------------|
G|-2--5--7-7-7-7-7-10-10-10-10-101010-101010-101010-101010----------------------|
D|-2--5--7-7-7-7-7-10-10-10-10-101010-101010-101010-101010----------------------|
A|-0--3--5-5-5-5-5-8--8--8--8--8-8-8--8-8-8--8-8-8--8-8-8-----------------------|
D|------------------------------------------------------------------------------|

e|------------------------------------------------------------------------------|
B|------------------------------------------------------------------------------|
G|------------------------------------------------------------------------------|
D|------------------------------------------------------------------------------|
A|--5-5-7--5-5-5-7--5-5-5-7--5-5-5-7---7-7-9--7-7-7-9--7-7-7-9--7-7-7-9---3--2-0|
D|--5-5-7--5-5-5-7--5-5-5-7--5-5-5-7-5-7-7-9--7-7-7-9--7-7-7-9--7-7-7-9---3--2-0|

Good evening people welcome to the show......X3
e|------------------------------------------------------------------------------|
B|------------------------------------------------------------------------------|
G|------------------------------------------------------------------------------|
D|------------------------------------------------------------------------------|
A|--3-2-0~~---------------------------------------------------------------------|
D|--3-2-0~~---------------------------------------------------------------------|

Make it......Don't Break it   MAIN RIFF  X4
e|------------------------------------------------------------------------------|
B|------------------------------------------------------------------------------|
G|------------------------------------------------------------------------------|
D|------------------------------------------------------------------------------|
A|-0-345-7-8-8-10-12-12---------------------------------------------------------|
D|-0-345-7-8-8-10-12-12---------------------------------------------------------|

Do ya then feel like the world's comin down on you
e|------------------------------------------------------------------------------|
B|------------------------------------------------------------------------------|
G|------------------------------------------------------------------------------|
D|------------------------------------------------------------------------------|
A|--00-345-678~~---------3-2-0~~------------------------------------------------|
D|--00-345-678~~---------3-2-0~~------------------------------------------------|

You know that history repeats itself....  X3
e|------------------------------------------------------------------------------|
B|------------------------------------------------------------------------------|
G|------------------------------------------------------------------------------|
D|------------------------------------------------------------------------------|
A|--3-2-0~~---------------------------------------------------------------------|
D|--3-2-0~~---------------------------------------------------------------------|

Make it......Don't Break it   MAIN RIFF  X4
e|------------------------------------------------------------------------------|
B|------------------------------------------------------------------------------|
G|------------------------------------------------------------------------------|
D|------------------------------------------------------------------------------|
A|-0-345-7-8-8-10-12-12---------------------------------------------------------|
D|-0-345-7-8-8-10-12-12---------------------------------------------------------|

Better weather,pull yourself together....
e|------------------------------------------------------------------------------|
B|-s6--8-8-8s10-8-6-5-3-1-1~~-s6--8-8-8s10-8-6-5-3-1-1-----s6-5-5-3~~~----------|
G|------------------------------------------------------------------------------|
D|------------------------------------------------------------------------------|
A|------------------------------------------------------------------------------|
D|------------------------------------------------------------------------------|
well, that's all i have so far...but i promise that i will update this tab when i find 
some more notes
Peace,
DoomGuy

| /  slide up
| \  slide down
| h  hammer-on
| p  pull-off
| ~  vibrato
| +  harmonic
| x  Mute note
===============================================================================
            
Submit corrections

comments powered by Disqus
↑ Back to top | Aerosmith Tabs for Make It. Lyrics for acoustic guitar and electric guitar. Tablatures and chords are parodies/interpretations of the original songs. You may use it for private study, scholarship, research or language learning purposes only