» » »

Aerosmith, Fly Away From Here Tabs (ver.1)

Artists:  A B C D E F G H I J K L M N O P Q R S T U V W X Y Z # 

Fly Away From Here Tabs (ver.1)

Aerosmith Tabs
 Rating:
4/5 (4 votes)
Fly Away From Here lessons Tabs too difficult? Try these video lessons and learn fast
1
                

Intro

e-------------0-0------
B--0----0-----2--2----
G--1---1------2---2---  x2
D--2--2-------2-------
A--2----------0-------
E--0------------------

Verse 1
             E                       G#m
Gotta find a way, yeah I can't wait another day
                    A            Am
Ain't nothing gonna change, If we stay round here
                 E                G#m
Gotta do what it takes, Cause it's all in our hands 
                A               Am                      C#m
We all make mistakes, but it's never too late, to start again
B             A       C#m   B           A
Take another breath,     and say another prayer

To make a nice effect play the chords like this. You can also pick some notes to make another effect but be sure of repeat enough times to fill the space between the chords
   
  E   G#m  A   Am   C#m    B
e--0---4----0----0----4-----2--
B--0---4----2----1----5-----4--
G--1---4----2----2----6-----4-- 
D------------------------------
A----------0----0----4-----2---
E-0---4------------------------


Chorus

E      G#m             A
Fly, away from here, anywhere,
Am
I don't care, we'll just
E     G#m             A
Fly, away from here, our hopes and dreams
    Am
are out there somewhere
C#m        B           A             E?         Am A
Won't let time pass us by, we'll just flyyyyyyyy

Alter the chorus

e-------------0-0------
B--0----0-----2--2----
G--1---1------2---2---  x1
D--2--2-------2-------
A--2----------0-------
E--0------------------
Verse 2 (The same chords and effects than the first)

Is this life? It's even harder now
There ain't no never mind, you got me by your side
And any time you want, yeah we can catch a train 
And find a better life, cause we won't let nothing or no one keep gettin' us down

Pre-chorus
B            A
Baby you and I
C#m          B                  A
Can pack our bags and hit the skyyyyyyyyyyyyyy

Chorus

Bridge

B                           A
Do you see a bluer sky now? You can have a better life now
G         A     C#m
Open your eyes
B                               A
No one here can ever stop us, they can try but we won't let them
G      A       E  
No wayyyyyyyyyyyy

                                  E A  D  G B e
C#m ( for this one play like this 9 11 11 9 9 9)

B            A  C#m          B                  A
Baby you and I, Can pack our bags and say Goodbyeeeeeeeeeeeeeeeee

     E     G#m            A              Am
Then Fly, Away from here, Anywhere, yeah I don't care
       E     G#m                 A                    Am
We just Fly, Away from here, our hopes and dreams are out there somewhere
E            G#m                    A              Am
Flyyyyyyyyy, Away from here, yeah, anywhere, baby I don't, I don't, I don't careeeeeeeee


Solo

e--------------------------------
B--------------------------------
G—10/11-11v-9-11-11b—9v----------
D-----------------------11/9-9v--
A--------------------------------
E--------------------------------

                A      Am
We'll just flyyyyyyyyyyyyyyyyy







End

e-------------0-0----0--
B--0----0-----2--2---0--
G--1---1------2---2--1--  
D--2--2-------2------2--
A--2----------0------2--
E--0-----------------0--
            
Submit corrections

comments powered by Disqus
↑ Back to top | Aerosmith Tabs for Fly Away From Here. Lyrics for acoustic guitar and electric guitar. 1 Tablatures and chords are parodies/interpretations of the original songs. You may use it for private study, scholarship, research or language learning purposes only