» » »

Aerosmith, Fallin In Love Bass tabs (ver.1)

Artists:  A B C D E F G H I J K L M N O P Q R S T U V W X Y Z # 

Fallin In Love Bass tabs (ver.1)

Aerosmith Tabs
 Rating:
4/5 (4 votes)
Fallin In Love lessons Tabs too difficult? Try these video lessons and learn fast
1
                Instrument Used: 4 String Bass, Standard Tuning 
  
[[[KEY]]] -----> X= Rest /= Slide Down \= Slide Up ~= Let Note Ring *Special Notation p=pop h=hammeron s=slap


Intro/Bridge
G|----------------|X2
A|----------------|
D|----------------|
E|-1-33-1-33-1-3--|

Verse ["You think you're in love..."]
G|-------------------------------------------------------------------------------------|X1
A|-/12-----------------------------------0/12------------------0/12--------------------|
D|-----1-111-3-3-3-5~-X-/555-1-111-333-5------/555-1-111-333-5------/555-1-111-333-----|
E|---------------------------------------------------------------------------------3~--|

Intro/Bridge X2

Verse 2 ["We was making love..."]
G|-----------------------------|X2
A|-----------------------------|
D|----3~\1~-/6~-/3~-\6~-1~-----|
E|-3~----------------------3~--|

Intro/Bridge X1

Verse X1

Bridge 2
G|------------------------------|X1
A|------------------------------|
D|-------------------------3h5--|
E|-1-33-1-33-1-3-1-33-1-33------|

Verse 2 X2 *At end, instead of ending on fret "3" on the E string, do a slide from fret 3 to 11 on the E string.   

Intro/Bridge X1

Verse X1

Breakdown
G|--------------------------------------------------------------------------------------------------------|X1
A|--------------------------------------------------------------------------------------------------------|
D|---------------------------------------------0-1-------------------------------------0/12-12-0/12-12-0--|
E|-1-33-2-44-3-55-4-77-888888888888888888-33-5-----88888888-77777777-66666666-55555555--------------------|

Guitar Solo
G|---------------------------|X2
A|---------------------------|
D|-/555-11111-3333-5~-3h5p3--|
E|---------------------------| 

Intro/Bridge X2
Verse 2 X2
Verse X3

Outro
G|-------------------------|X2
A|-------------------------|
D|-------------------------|
E|-1-33-2-44-3-55-4-77-6\--|
            
Submit corrections

comments powered by Disqus
↑ Back to top | Aerosmith Bass for Fallin In Love. Lyrics for acoustic guitar and electric guitar. 1 Tablatures and chords are parodies/interpretations of the original songs. You may use it for private study, scholarship, research or language learning purposes only