» » »

Dude (Looks Like A Lady) Tabs (ver.3)

Artists:  A B C D E F G H I J K L M N O P Q R S T U V W X Y Z # 

Dude (Looks Like A Lady) Tabs (ver.3)

Aerosmith
Rating:
0/5 (0 votes)

Hard to play? Try these video lessons and learn fast.
                This piece NEEDS to be played on two guitars, i think it sounds best with a Les Paul(rhythm pickup) playing the power chords and a Strat(bridge pickup) Playing the finger picks

This is the basis for the songs intro, verses and chorus

Les Paul part                            Strat Part
e -------------------------------|---------2--------3-----2
B--------------------------------|---------3--------3-----3
G--------------------------------|---------2--------2-----2
D--------------------------------|------0--------0---------
A---------7-------5------7-------|-------------------------
E----------5------3-------5------|-------------------------

Main Bridge

Play this:-
e--------------------------------
B--------------------------------
G--------------------------------
D--------7-----5-----7-----------
A--------9-----7-----9-----------
E--------------------------------

Then the bridge bit where Mr. Tyler sings 'what a funky lady' is left hand muting over all of the strings with your index finger based against the 5th fret and after the third time round you play
a high G5

then, to end the song, you jus play the main piece off the song
            
Hard to play? Try these video lessons and learn fast. | Correct




comments powered by Disqus
↑ Back to top | Tablatures and chords are parodies/interpretations of the original songs. You may use it for private study, scholarship, research or language learning purposes only