>
 >
Cryin

Cryin Bass Tabs

Aerosmith - Cryin chords, tabs, tablatures, lyrics

Guitar lessons | Add/correct | Request | Top 50 tabs Artists:  A B C D E F G H I J K L M N O P Q R S T U V W X Y Z 0-9

Cryin Bass Tabs – Aerosmith

CD, Sheet music, Poster

Do you like Cryin? Share with your friends now
Bass TabsTabs
-------------------------------------------------------------------------------
			     CRYIN' - Aerosmith
-------------------------------------------------------------------------------


Tuning: I'm quite sure Tom used a 5-string bass to record this song,
but I preferred to tune some notes (especially the choruses) one octave higher
than tune down one string. As soon as I'll be able to, I'll write the tab for
the 5-strings bass. Enjoy!!!

(INTRO)
G|----------------------|                 |----------------------------------|
D|----------------------|                 |----------------------------------|
A|1-3-------------------| (3 times, then) |1-3-------------------------------|
E|----1-3-3-3-3-3-3-3x--|                 |----1-3-3-3-3-3-3-6-6-6-6-6-6\----|

First verse: mute. Second verse:
G|---------------------------------------------------------------------------|
D|-7------2----3-4------------------7----7-2---------------------------------|
A|---------------------4----4-5----------------------------------------------|
E|---------------------------------------------------------------------------|

Bridge
G|------------7--------------------------------------------------------------|
D|-5-----4------4---5--------------------------------------------------2-2-2-|
A|---------5------5-----0-5--5-5-4-3-3-3-3-3-3-------------------------------|
E|---------------------------------------------3-3-3-3-2-1-0-0-0-0-0-0-------|

Chorus
G|---------------------------------------------------------------------------|
D|-2-4-6-7---------------4--------------7----5-4-2---2-1-0-0-0-0-0-0-5-5-5-5-|
A|-----------4-5-7---2-4------7-5---5-7--------------------------------------|
E|---------------------------------------------------------------------------|

G|---------------------------------------------------------------------------|
D|-4-6-7-------------------------------------7-------------------------------|
A|---------4-5-7---7---7-7-4----4-5---4-7-0----5-6-7---7-6-5-5-5-5-5-5-5x----|
E|---------------7-----------------------------------------------------------|

(INTRO TO THIRD VERSE)
G|----------------------|                 |-----------------------------|
D|----------------------|                 |-----------------------------|
A|1-3-------------------| (3 times, then) |1-3--------------------------|
E|----1-3-3-3-3-3-3-3x--|                 |----1-3-3-3-3-3-3-6-6-6-6-6-6|

Third verse
G|--------------------------------------------------------------------------|
D|------------------4---------6/7\------------------------------------------|
A|-----4-5-7----6-7---------------4-----5---4-7-0-----7---------------------|
E|-5----------------------------------------------------7-0---------4\0-----|
 down on me...       yeah   tell you                girl i gotta say

G|--------------------------------7--------------------------------|
D|--------------------4---4/6-------7------------------------------|
A|--7-0---4-5-7---5-7---------4-------4-5------0-----7---7---------|
E|7------------------------------------------4---------7-----------|

G|----------------------------------------------------------------------------|
D|-----------------------------------------------------------------------2-2-2|
A|2-----------5--5-5---------5---5-4-3-3-3-3-3-3------------------------------|
E|--4-3---3-2-----7-3---0-2----------------------3-3-3-3-2-1-0-0-0-0-0-0------|
     all i want...is someone...

2nd CHORUS
G|--------------------------------------------------------------------------|
D|2-4-6-7-----------------4--------4-6-7----7-------------------------------|
A|----------4-5-7-----------7-5---------------7-----/7-6-5-5-5-5-5-5-5-5-5-5|
E|------------------7-0-----------------------------------------------------|
                                                                        2:43    
G|---------------------6-6-6-------7-7-7------------------------------------|
D|-------7-------------------7----------------------------------------------|
A|7-7-0----4-5-7----\4---------4-5-------5-7-0-----7-7-7-7---7-5-5-5-5-5-5-5|
E|---------------------------------------------------------7----------------|

G|----------------------|                 |-----------------------------|
D|----------------------|                 |-----------------------------|
A|1-3-------------------| (3 times, then) |1-3--------------------------|
E|----1-3-3-3-3-3-3-3x--|                 |----1-3-3-3-3-3-3-6-6-6-6-6-6|

G|8-8-8-8-8-8----------------------------------------------------------------|
D|------------8-8-8-8-8-8---1-1-1-1-1-1-8-8-8-8-8-8-6-6-6-6-6/8--------------|
A|------------------------1-------------------------------------6-6-6-6-6-6--|
E|---------------------------------------------------------------------------|

G|---------------------------------------------------------------------------|
D|8/9-9-9-/9-9-9-/9-9-9...etc 'til the chorus--------------------------------|
A|---------------------------------------------------------------------------|
E|---------------------------------------------------------------------------|

G|-----------------------6----------------------------------------------|
D|/7-----------------------7--------------------------------------------|
A|-----4-5-7-------9/4-------4-5---5-7-0-0-0-0-----------/5-5-5-5-5-5-5-|
E|-----------7-0-------------------------------3-2-0--------------------|

G|------------------------|
D|------------------------|
A|--------4-5-7----7-7/9x-| STOP! :)
E|3-4-5-------------------|
                 Now I'm dying...

G|----------------------------------------------------------------|
D|----------------------------------------------------------------|
A|5---5-7-0---4-5-7-----7-7-6-5-5-5-5-5-5-/17-17-17-17-17-17\5-5-5|
E|------------------7-0-------------------------------------------|

G|------------------|
D|------------------|
A|-3-3-3-2-2-2-1-1-1|
E|------------------|

(Harmonica "solo")
G|-----------------------------------------------------------------------------|
D|---7--------------------------------------------------/12-12-12--------------|
A|------4-5-7---7-7\4-4/16\5---5----------------7/5----------------------------|
E|5-----------7--------------5-----5--5-3-2-0----------------------------------|

G|-----------------------------------------------------------------------------|
D|----4-7----------------------------------------------------------------------|
A|5-7---------7-----4----4-5---------12-12-12-12-12-12-5-5-5-5-5-5-5-5-5-5-5-5-|
E|-----------------------------5-5-5-------------------------------------------|

G|-------------------------------|
D|------------12-12-12-----------|
A|5-5-5-5-5-5----------12-9------|
E|-----------------------------12|

Final, long chorus
G|----------------------------------7-7-7-7-7----------------------------------|
D|-----------------------------------------------------------------------------|
A|----4-5-7----7\4-16-16-16-16-16\5-----------6/7-----------------7\5-5-5-5-5-5|
E|5-----------------------------------------------5---5-4-2-0------------------|

G|---------|
D|---------|
A|-12-12-12|
E|---------|

G|-----------------------------------------------------------------------|
D|7-----7---4-2-----------------7-7-7-7-7-7-7-7-7-7-7-7-12-12-12-12-12-12|
A|--5-7-----------4-----5---5/7------------------------------------------|
E|-----------------------------------------------------------------------|

G|------------------17-16-14-10-9-7------|
D|12-12-12-12-12-12-----------------7----|
A|------------------------------------9-7|
E|---------------------------------------|

G|---------------------------------------------------------------------------|
D|---------------------------------------------------------------------------|
A|------7-----4-----4-5-4-5------------/7-/7-5-----5-5-5-5-3-2---------------|
E|5---------------5-----------5-----4--------------------------5.......fading|


There are soooo many errors, I'm so sure...:P Please don't kill me!




| /  slide up
| \  slide down
| h  hammer-on
| p  pull-off
| ~  vibrato
| +  harmonic
| x  Mute note

===============================================================================





Comments


Popular Aerosmith tabs & chords
Back In The Saddle Bass Tabs
Come Together 1 Bass Tabs
My Fist Your Face Chords
Adam's Apple Tabs
Crash Tabs
Crazy 2 Tabs
Hole In My Soul 1 Tabs
Train Kept A Rollin' Tabs
What It Takes Tabs
Draw The Line Ukulele


Song lyrics



↑ Back to top | Tablatures and chords are parodies/interpretations of the original songs. You may use it for private study, scholarship, research or language learning purposes only
© 2014 AZChords.com Contact us | Privacy policy | DMCA | Add/correct tabs | Request tabs | Top 50 tabs