» » »

Aerosmith, Bone To Bone Tabs (ver.2)

Artists:  A B C D E F G H I J K L M N O P Q R S T U V W X Y Z # 

Bone To Bone Tabs (ver.2)

Aerosmith Tabs
Rating:
0/5 (0 votes)
Bone To Bone lessons Tabs too difficult? Try these video lessons and learn fast
                Bone to Bone

Intro (Main Riff)
E|------------------------------------------|
B|------------------------------------------|
G|--5---------------------------------------|
D|----7-5-----5-----------------------------|
A|---------7-----7--5-0--3--0----5-6-7------|
E|----------------------------0--3-4-5------|



Verse
E|------------------------------------------|
B|------------------------------------------|
G|---------------0--------------------------|
D|-9--7-9--9-7-9-0--9---9--7-9--9-7-9-------|
A|-7--7-7--7-7-7----7---7--7-7--7-7-7-------|
E|------------------------------------------|

There are many many possible varriations to 
the verse riff... like this:
E|------------------------------------------|
B|------------------------------------------|
G|------------------------------------------|
D|---------------5--------------------------|
A|-7--5-7--7-5-7----7---7--5-7--7-5-7-------|
E|------------------------------------------|

Or like this
E|------------------------------------------|
B|------------------------------------------|
G|---------------0--------------------------|
D|-2--0-2--2-0-2-0--2---2--0-2--2-0-2-------|
A|-2--0-2--2-0-2----2---2--0-2--2-0-2-------|
E|------------------------------------------|
Do whatever sounds right to you



There isnt much else to the song except for the solo witch is to
sloppy for me. The riffs do change a little in the solo.. just move
them up and listen for the different timing.
I hope this helps!
            

comments powered by Disqus
↑ Back to top | Aerosmith Tabs for Bone To Bone. Lyrics for acoustic guitar and electric guitar. Tablatures and chords are parodies/interpretations of the original songs. You may use it for private study, scholarship, research or language learning purposes only