» » »

I Hate Children Bass tabs (ver.2)

Artists:  A B C D E F G H I J K L M N O P Q R S T U V W X Y Z # 

I Hate Children Bass tabs (ver.2)

Adolescents
Rating:
1/5 (1 vote)

Tabs too difficult? Try these video lessons and learn fast.
                Intro (Guitar Only)
G---------------------------------|---------------------------------|
D---------------------------------|---------------------------------|
A---------------------------------|---------------------------------|
E---------------------------------|---------------------------------|

Verse 1
G-------------------------7---7---|-------------------------7---7---|
D-5-5-5-5-8-8-8-8-7-7-7-7---7---7-|-5-5-5-5-8-8-8-8-7-7-7-7---7---7-|
A---------------------------------|---------------------------------|
E---------------------------------|---------------------------------|

G-------------------------7---7---|-------------------------7---7---|
D-5-5-5-5-8-8-8-8-7-7-7-7---7---7-|-5-5-5-5-8-8-8-8-7-7-7-7---7---7-|
A---------------------------------|---------------------------------|
E---------------------------------|---------------------------------|

Chours ("Shut your mouth...")   x2
G---------------------------------|-----------------|
D---------------------------------|-----------------|
A-7-7-7-7---------3-3-3-3-3-3-3-3-|-5-5-5-5-5-5-5-5-|
E---------5-5-5-5-----------------|-----------------|

Verse 2
G-------------------------7---7---|-------------------------7---7---|
D-5-5-5-5-8-8-8-8-7-7-7-7---7---7-|-5-5-5-5-8-8-8-8-7-7-7-7---7---7-|
A---------------------------------|---------------------------------|
E---------------------------------|---------------------------------|

G-------------------------7---7---|-------------------------7---7---|
D-5-5-5-5-8-8-8-8-7-7-7-7---7---7-|-5-5-5-5-8-8-8-8-7-7-7-7---7---7-|
A---------------------------------|---------------------------------|
E---------------------------------|---------------------------------|

G-------------------------7---7---|-------------------------7---7---|
D-5-5-5-5-8-8-8-8-7-7-7-7---7---7-|-5-5-5-5-8-8-8-8-7-7-7-7---7---7-|
A---------------------------------|---------------------------------|
E---------------------------------|---------------------------------|

Chours ("Shut your mouth...")   x2
G---------------------------------|-----------------|
D---------------------------------|-----------------|
A-7-7-7-7---------3-3-3-3-3-3-3-3-|-5-5-5-5-5-5-5-5-|
E---------5-5-5-5-----------------|-----------------|

Verse 3
G-------------------------7---7---|-------------------------7---7---|
D-5-5-5-5-8-8-8-8-7-7-7-7---7---7-|-5-5-5-5-8-8-8-8-7-7-7-7---7---7-|
A---------------------------------|---------------------------------|
E---------------------------------|---------------------------------|

G-------------------------7---7---|-------------------------7---7---|
D-5-5-5-5-8-8-8-8-7-7-7-7---7---7-|-5-5-5-5-8-8-8-8-7-7-7-7---7---7-|
A---------------------------------|---------------------------------|
E---------------------------------|---------------------------------|

G-------------------------7---7---|-------------------------7---7---|
D-5-5-5-5-8-8-8-8-7-7-7-7---7---7-|-5-5-5-5-8-8-8-8-7-7-7-7---7---7-|
A---------------------------------|---------------------------------|
E---------------------------------|---------------------------------|

Chours ("Shut your mouth...")   x2
G---------------------------------|-----------------|
D---------------------------------|-----------------|
A-7-7-7-7---------3-3-3-3-3-3-3-3-|-5-5-5-5-5-5-5-5-|
E---------5-5-5-5-----------------|-----------------|

Outro
G-------------------------7---7---|-------------------------7---7---|
D-5-5-5-5-8-8-8-8-7-7-7-7---7---7-|-5-5-5-5-8-8-8-8-7-7-7-7---7---7-|
A---------------------------------|---------------------------------|
E---------------------------------|---------------------------------|

G-------------------------7---7---|-------------------------7---7---7---7------|
D-5-5-5-5-8-8-8-8-7-7-7-7---7---7-|-5-5-5-5-8-8-8-8-7-7-7-7---7---7---7---7--5-|
A---------------------------------|--------------------------------------------|
E---------------------------------|--------------------------------------------|


****************************************************************************
 
I am fed up with all the other versions on this site, they are all cr*p, 
 ussually too sharp or too flat, also full of wrong notes or not having 
 the octive. Steve Soto ALWAYS plays the octive, even when he was in
 Agent Orange in 1979. So here is the PERFECT version
            
Tabs too difficult? Try these video lessons and learn fast.




comments powered by Disqus
↑ Back to top | Tablatures and chords are parodies/interpretations of the original songs. You may use it for private study, scholarship, research or language learning purposes only