» » »

I Hate Children Tabs (ver.1)

Artists:  A B C D E F G H I J K L M N O P Q R S T U V W X Y Z # 

I Hate Children Tabs (ver.1)

Adolescents
Rating:
5/5 (4 votes)

Hard to play? Try these video lessons and learn fast.
                This tab is right, 100% for sure, I've tried playing the other two, their out of key 
the song or the beats/time/strumming is wrong this is right.

Verse:
E-------------------------------------------------------------|
B-------------------------------------------------------------|
G------------------------------------------------7-----7------|
D---5--5--5--5--5--8--8--8--8--8--7--7--7--7--7--7--7--7--7---|
A---5--5--5--5--5--8--8--8--8--8--7--7--7--7--7--5--7--5--7---|
E---3--3--3--3--3--6--6--6--6--6--5--5--5--5--5-----5-----5---|

Do it however many time it is according to the song.  The strumming it 
"double-picking"

Chorus:
E--------------------------------------------------------------------------|
B--------------------------------------------------------------------------|
G---9--9--9--9--9----------------------------------------------------------|
D---9--9--9--9--9--7--7--7--7--7--10--10--10--10--10--10--10--10--10--10---|
A---7--7--7--7--7--7--7--7--7--7--10--10--10--10--10--10--10--10--10--10---|
E------------------5--5--5--5--5--8---8---8---8---8---8---8---8---8---8----|

Play twice, same struming as before "double-picking"

Interlude:
E--------------------------------------------|
B--------------------------------------------|
G--------------------------------------------|
D---12--12--12--12--12--12--12--12--12--12---|
A---12--12--12--12--12--12--12--12--12--12---|
E---10--10--10--10--10--10--10--10--10--10---|

Play once after the chorus, still "double-picking"

Verse
Chorus
Interlude
Verse
Chorus
Interlude
Verse

I think it might be longer, but that's the order, I'm 100% the tab is right, picking, 
and everything.  Listen to the song while you're learning at the same time, it'll fall in 
once you've heard it.
            
Hard to play? Try these video lessons and learn fast. | Correct




comments powered by Disqus
↑ Back to top | Tablatures and chords are parodies/interpretations of the original songs. You may use it for private study, scholarship, research or language learning purposes only