» » »

Too Young Tabs (ver.1)

Artists:  A B C D E F G H I J K L M N O P Q R S T U V W X Y Z # 

Too Young Tabs (ver.1)

Adicts
Rating:
4/5 (2 votes)

Hard to play? Try these video lessons and learn fast.
                Band:Adicts


theres a version thats tabbed out there that doesnt
include Chorus/solo/interlude and is in wrong key


Verse

e---------------------------------------------------------------------|
B---------------------------------------------------------------------|
G--10-12---------------10--12---------------10-12---------------------|
D--10-12--12-12-12-----10--12---12-12-12----10-12--12-12-12-----------|
A--8--10--12-12-12-----8---10---12-12-12----8--10--12-12-12-----------|
E---------10-10-10--------------10-10-10-----------10-10-10-----------|

Pre-Chorus

e---------------------------------------------------------------------|
B---------------------------------------------------------------------|
G-----------------10-10-10-10-10--------------------------------------|
D--10-10-10-10-10-10-10-10-10-10--------------------------------------|
A--10-10-10-10-10-8--8--8--8--8---------------------------------------|
E--8--8--8--8--8------------------------------------------------------|

Chorus

e---------------------------------------------------------------------|
B---------------------------------------------------------------------|
G-9-9-9-9--10-10-9-9-7-7-7-7-7-7-7-7----------------------------------|
D-9-9-9-9--10-10-9-9-7-7-7-7-7-7-7-7----------------------------------|
A-7-7-7-7--8--8--7-7-5-5-5-5-5-5-5-5----------------------------------|
E---------------------------------------------------------------------|

e--10----10-----10------10--------------------------------------------|
B---------------------------------------------------------------------|
G-----10----10------10------------------------------------------------|
D---------------------------------------------------------------------|
A---------------------------------------------------------------------|
E---------------------------------------------------------------------|

Riff

e---------------------------------------------------------------------|
B--------13--15~-13-15-13h15p13---------------------------------------|
G--10---------------------------14-14---------------------------------|
D---------------------------------------------------------------------|
A---------------------------------------------------------------------|
E---------------------------------------------------------------------|

End of Riff

e---------------------------------------------------------------------|
B--15~-13~-12~-10~-8~-6~-8~--\10~-------------------------------------|
G---------------------------------------------------------------------|
D---------------------------------------------------------------------|
A---------------------------------------------------------------------|
E---------------------------------------------------------------------|

Interlude/Slow part in Middle

e---------------------------------------------------------------------|
B---------------------------------------------------------------------|
G--10--10-10--9--7--7-7--5--3--3-3-3-3-7---5--------------------------|
D--10--10-10--9--7--7-7--5--3--3-3-3-3-7---5--------------------------|
A--8---8--8---7--5--5-5--3--1--1-1-1-1-5---3--------------------------|
E---------------------------------------------------------------------|

any comments/corrections contact me, please rate
            
Hard to play? Try these video lessons and learn fast. | Correct




comments powered by Disqus
↑ Back to top | Tablatures and chords are parodies/interpretations of the original songs. You may use it for private study, scholarship, research or language learning purposes only